Song name
# A B C D E F G H I J K L M N O P Q R S T U V W X Y Z

Deftones - Lhabia tab

Deftones	Lhabia							
Db-Ab-Db-Gb-Bb-eb

Couplet
|-----------------------------------------------------------------|
|-----------------------------------------------------------------|
|-----------------------------------------------------------------|
|-0-2-2-2-0-2-2-2-0-2-2-2-0-3-3-3-0-2-2-2-0-2-2-2-0-2-2-2-2-0-0-0-|
|-0-2-2-2-0-2-2-2-0-2-2-2-0-------0-2-2-2-0-2-2-2-0-2-2-2-2-0-0-0-|
|-0-2-2-2-0-2-2-2-0-2-2-2-0-------0-2-2-2-0-2-2-2-0-2-2-2-2-0-0-0-|
  .........................       ...............................

Refrain
|-----------------------------|
|-----------------------------|
|-6/8-8-8-8-8-8-8-8~~-----4~~-|
|-4/6-6-6-6-6-6-6-7~~-----2~~-|
|-4/6-6-6-6-6-6-6-7~~-----2~~-|
|-4/6-6-6-6-6-6-6-7~~-----2~~-|

Pont
|-----------------------------------------------------------------------------------|
|----------------------------------------------------------------------------0~--0~-|
|----------------------------------------------------------------------------0~--0~-|
|-7-7-7-7-7-7-7-7-7-7-7-7-7-7-7-7-6-6-6-6-6-6-6-6-6-6-6-6-6-6-6~--2-2~~~~----0~--0~-|
|-7-7-7-7-7-7-7-7-7-7-7-7-7-7-7-7-6-6-6-6-6-6-6-6-6-6-6-6-6-6-6~--2-2~~~~----0~--0~-|
|-7-7-7-7-7-7-7-7-7-7-7-7-7-7-7-7-6-6-6-6-6-6-6-6-6-6-6-6-6-6-6~--2-2~~~~----0~--0~-|
										   \____/
									      sauf dernière fois

"You're fine"
|---------------------------------||---------------------------------|
|---------------------------------||---------------------------------|
|-6/8-8-8~--------8~------4~------||-6/8-8-8~--------8~------4~------| dernière fois
|-4/6-6-6~----x-x-7~--x-x-2~--x-x-||-4/6-6-6~----x-x-7~--x-x-2~------|
|-4/6-6-6~----x-x-7~--x-x-2~--x-x-||-4/6-6-6~----x-x-7~--x-x-2~------|
|-4/6-6-6~----x-x-7~--x-x-2~--x-x-||-4/6-6-6~----x-x-7~--x-x-2~-12\\-|

Outro
|--------------------------------------------------------------------------------------23-----23----23~~-|
|--------------------------------------------------------------------------------------------------------|
|--------------------------------------------------------------------------------------------------------|
|-7-7-7-7-7-7-7-7-7-7-7-7-7-7-7-7-6-6-6-6-6-6-6-6-6-6-6-6-6-6-6~--2-2~~~~----0~~~~~~~~~~~~~~~~~~~~~~~~~~-|
|-7-7-7-7-7-7-7-7-7-7-7-7-7-7-7-7-6-6-6-6-6-6-6-6-6-6-6-6-6-6-6~--2-2~~~~----0~~~~~~~~~~~~~~~~~~~~~~~~~~-|
|-7-7-7-7-7-7-7-7-7-7-7-7-7-7-7-7-6-6-6-6-6-6-6-6-6-6-6-6-6-6-6~--2-2~~~~----0~~~~~~~~~~~~~~~~~~~~~~~~~~-|
Tap to rate this tab
# A B C D E F G H I J K L M N O P Q R S T U V W X Y Z