Song name
# A B C D E F G H I J K L M N O P Q R S T U V W X Y Z

Deftones - Mascara tab

Deftones	Mascara							
Eb-Ab-Db-Gb-Bb-eb

Intro / Couplet
|----------------------------------------------|
|----------------------------------------------|
|------------------------------------------0~~-|
|----------0-----------------------0-----------|
|------------0-----------------------0---------|
|-/6-5---2-----2~~--------/6-5---2-----2~~-----|
			    \__________________/
				dernière fois

Refrain
|-----------------------------------|
|-----------------------------------|
|-----------------------------------|
|-8-8-8-8-8-8-8-8---0-0-0-0-0-0-0-0-|
|-8-8-8-8-8-8-8-8---0-0-0-0-0-0-0-0-|
|-6-6-6-6-6-6-6-6-0-2-2-2-0-2-2-0-2-|

Pont
|----------------------------------------------------------------------------------------------|
|----------------------------------------------------------------------------------------------|
|----------------------------------------------------------------------------------------------|
|-0-0-0-0-0-0-0-0--0---0---0---0-0----0-0-0-0-0-0-0-0--0---0---0-0-0--0-0--0-0-0-0-0-0-0-0-4~~-|
|-0-0-0-0-0-0-0-0--0---0---0---0-0----0-0-0-0-0-0-0-0--0---0---0-0-0--0-0--0-0-0-0-0-0-0-0-4~~-|
|-5-5-5-5-5-5-5-5\-2---2---2---2-2/---5-5-5-5-5-5-5-5\-2---2---2-2-2--2-2--5-5-5-5-5-5-5-5-2~~-|
  \_______________________________/
                 2x

Outro
|-------------------------------------------------------|
|-------------------------------------------------------|
|-1~~~~---1~---------------1~---------------1~----------|
|-1~~~~------1~---------------1~---------------1~-------|
|-1~~~~---------1~---------------1~---------------1~----|
|-0~~~~-----------0~~--------------0~~--------------0~~-|
	   \___________________________________________/
                     jusqu'à la fin du morceau
Tap to rate this tab
# A B C D E F G H I J K L M N O P Q R S T U V W X Y Z