Song name
# A B C D E F G H I J K L M N O P Q R S T U V W X Y Z

Deftones - My Own Summer tab

-#

From:   Jeffrey J. Davis [jdavis3@pigseye.kennesaw.edu]
Sent:   Wednesday, December 17, 1997 3:05 PM


Title:  My Own Summer (Shove it)
Artist: by the Deftones
Source: From the album "Around the Fur"
Transcribed by Jeff Davis (jdavis3@pigseye.kennesaw.edu)



      Riff A                                                          8x

E||----------------------------------------------------------------------||
B||----------------------------------------------------------------------||
G||*--------------------------------------------------------------------*||
D||*--------------------------------------------------------------------*||
A||----------------------------------------------------------------------||
D||--0---11---12---0---11-\-8---0---8---0---8-\-7---0---8---5-------5----||
beat:1        &        2        &       3       &       4       &


      Riff B                                                      4x
E||-------------------------------------------------------------------||
B||-------------------------------------------------------------------||
G||*-----------------------------------------------------------------*||
D||*-0---7---8---0---8---5---0---5---0---5-/-7---0---8---4-------4---*||
A||--0---7---8---0---8---5---0---5---0---5-/-7---0---8---4-------4----||
D||--0---7---8---0---8---5---0---5---0---5-/-7---0---8---4-------4----||
     1       &       2       &       3       &       4       &

  play Riff A 8x

  play Riff B 4x

     Riff C
E||-------------------------------------------------------------------|
B||-------------------------------------------------------------------|
G||*-9---9---9---9---9---9---9---9---9---9---9---9---9---9---9---9----|
D||*-8---8---8---8---8---8---8---8---8---8---8---8---8---8---8---8----|
A||--8---8---8---8---8---8---8---8---8---8---8---8---8---8---8---8----|
D||--8---8---8---8---8---8---8---8---8---8---8---8---8---8---8---8----|
     1       &       2       &       3       &       4       &

E|------------------------------------------------------------------|
B|------------------------------------------------------------------|
G|-9---9---9---9---9---9---9---9---9---9---9---9---9---9---9---9----|
D|-8---8---8---8---8---8---8---8---8---8---8---8---8---8---8---8----|
A|-8---8---8---8---8---8---8---8---8---8---8---8---8---8---8---8----|
D|-8---8---8---8---8---8---8---8---8---8---8---8---8---8---8---8----|
   1       &       2       &       3       &       4       &

E|------------------------------------------------------------------||
B|------------------------------------------------------------------||
G|-----------------------------------------------------------------*||
D|-5---5---5---8---0-------5---5---5---8---8---0---0---------------*||
A|-5---5---5---8---0-------5---5---5---8---8---0---0----------------||
D|-5---5---5---8---0-------5---5---5---8---8---0---0----------------||
   1       &       2       &       3       &       4       &


   Let the D chord ring out for a additional 3 beats (for a total of 4)
   Drums then enter and play for 8 beats.

   Then the bass plays this   8x
G||---------------------------------------------------------------------------||
D||*-------------------------------------------------------------------------*||
A||*-------------------------------------------------------------------------*||
D||--5-/-12---12---12---12-\-11---11---11---11-\-8---8---8---8-\-5---5---5----||
     1        &         2         &         3        &       4       &

      Riff B                                                      8x
E||-------------------------------------------------------------------||
B||-------------------------------------------------------------------||
G||*-----------------------------------------------------------------*||
D||*-0---7---8---0---8---5---0---5---0---5-/-7---0---8---4-------4---*||
A||--0---7---8---0---8---5---0---5---0---5-/-7---0---8---4-------4----||
D||--0---7---8---0---8---5---0---5---0---5-/-7---0---8---4-------4----||
     1       &       2       &       3       &       4       &

E||-------------------------------------------------------------------|
B||-------------------------------------------------------------------|
G||*-9---9---9---9---9---9---9---9---9---9---9---9---9---9---9---9----|
D||*-8---8---8---8---8---8---8---8---8---8---8---8---8---8---8---8----|
A||--8---8---8---8---8---8---8---8---8---8---8---8---8---8---8---8----|
D||--8---8---8---8---8---8---8---8---8---8---8---8---8---8---8---8----|
     1       &       2       &       3       &       4       &

E|------------------------------------------------------------------|
B|------------------------------------------------------------------|
G|-9---9---9---9---9---9---9---9---9---9---9---9---9---9---9---9----|
D|-8---8---8---8---8---8---8---8---8---8---8---8---8---8---8---8----|
A|-8---8---8---8---8---8---8---8---8---8---8---8---8---8---8---8----|
D|-8---8---8---8---8---8---8---8---8---8---8---8---8---8---8---8----|
   1       &       2       &       3       &       4       &

      1st ending
E|------------------------------------------------------------------||
B|------------------------------------------------------------------||
G|-----------------------------------------------------------------*||
D|-5---5---5---8---0-------5---5---5---8---8---0---0---------------*||
A|-5---5---5---8---0-------5---5---5---8---8---0---0----------------||
D|-5---5---5---8---0-------5---5---5---8---8---0---0----------------||
   1       &       2       &       3       &       4       &

      2nd ending
E|-------------------------------------------------0----------------|
B|-------------------------------------------------0----------------|
G|-------------------------------------------------0----------------|
D|-5---5---5---8---0-------5---5---5---8---8---0---0----------------|
A|-5---5---5---8---0-------5---5---5---8---8---0---0----------------|
D|-5---5---5---8---0-------5---5---5---8---8---0---0----------------|
   1       &       2       &       3       &       4       &


E|-------------------------------------------------0----------------|
B|-------------------------------------------------0----------------|
G|-------------------------------------------------0----------------|
D|-5---5---5---8---0-------5---5---5---8---8---0---0----------------|
A|-5---5---5---8---0-------5---5---5---8---8---0---0----------------|
D|-5---5---5---8---0-------5---5---5---8---8---0---0----------------|
   1       &       2       &       3       &       4       &

E|-------------------------------------------------0----------------|
B|-------------------------------------------------0----------------|
G|-------------------------------------------------0----------------|
D|-5---5---5---8---0-------5---5---5---8---8---0---0----------------|
A|-5---5---5---8---0-------5---5---5---8---8---0---0----------------|
D|-5---5---5---8---0-------5---5---5---8---8---0---0----------------|
   1       &       2       &       3       &       4       &

E|-------------------------------------------------0----------------|
B|-------------------------------------------------0----------------|
G|-------------------------------------------------0----------------|
D|-5---5---5---8---0-------5---5---5---8---8---0---0----------------|
A|-5---5---5---8---0-------5---5---5---8---8---0---0----------------|
D|-5---5---5---8---0-------5---5---5---8---8---0---0----------------|
   1       &       2       &       3       &       4       &

  Let the D chord ring out for an additional 8 beats.

  Then play Riff B 2x normal and 2x playing the same progression
  on the 6th string.  End on the 2nd to last F# chord (4th fret).
Tap to rate this tab
# A B C D E F G H I J K L M N O P Q R S T U V W X Y Z