Song name
# A B C D E F G H I J K L M N O P Q R S T U V W X Y Z

Deftones - One Weak tab

-------------------------------------------------------------------------------
			     One Weak - Deftones
-------------------------------------------------------------------------------
Tabbed by: Trevor
Email: trevtones@hotmail.com

Tuning: Standard EADGBe

 Intro
e|-------------------------|------------------|----------------------------|
B|-------------------------|------------------|----------------------------|
G|-------------------------|------------------|----------------------------|
D|----4-----4-----4----5---|----4~---------5--|---44---44---44--45---------|
A|----4-----4-----4----5---|----4~---------5--|---44---44---44--45---------|
E|-00-2--00-2--00-2-00-3---|-00-2~------00-3--|-0-22-0-22-0-22-023---------|
   ** *  ** *  ** * ** *     **         **

 Chorus 
e|-------------0-----------------------------------------|-x-x-------------|
B|-------------0-----------------------------------------|-x-x-------------|
G|-66----------0-----------------------------------------|-x-x-------------|
D|-66-66-22-22----4/5-5-5-5\4-4-4-4/7-7-7-7\5-5-5-5------|-----------------|
A|-44-66-22-22----4/5-5-5-5\4-4-4-4/7-7-7-7\5-5-5-5------|-----------------|
E|-44-44-00-00----2/3-3-3-3\2-2-2-2/5-5-5-5\3-3-3-3------|-----------------|

Verse
e|-------------------------------------------------------|-x-x------------|
B|-------------------------------------------------------|-x-x------------|
G|-------------------------------------------------------|-x-x------------|
D|---44---44---44---4---4/5/7\5--------------------------|----------------|
A|---44---44---44---4---4/5/7\5--------------------------|----------------|
E|-0-22-0-22-0-22-0-2-0-2/3/5\3--------------------------|----------------|

Outro
e|-------------------------------------------------------------------------|
B|-------------------------------------------------------------------------|
G|-------------------------------------------------------------------------|
D|-444-222-444-222-4455----------------------------------------------------|
A|-444-222-444-222-4455----------------------------------------------------|
E|-222-000-222-000-2233----------------------------------------------------|




| /  slide up
| \  slide down
| h  hammer-on
| p  pull-off
| ~  vibrato
| +  harmonic
| x  Mute note
===============================================================================
Tap to rate this tab
 
# A B C D E F G H I J K L M N O P Q R S T U V W X Y Z