Song name
# A B C D E F G H I J K L M N O P Q R S T U V W X Y Z

Deftones - Chauffeur tab

Tuning:standard
Song: The Chauffer
Artist:Deftones

I couldn't find this tab on the site so i sent my own
 
   intro/verse
e|------------------------------------------|
b|-----5--------7---------9-------------4---|
g|-5-5-5-55\7-7-7-77\-9-9-9--99--9-/4-4-4-44|
d|-x-x-x-xx\x-x-x-xx\-x-x-x--xx--x-/x-x-x-xx| 9x
a|-3-3-3-33\5-5-5-55\-7-7-7--77--7-/2-2-2-22|
E|------------------------------------------|
            
             Chorus
e|-------------------------------------------|
b|-------------------------------------------|
g|-9-9-9--99/-7-7-7--77/-5-5-5--55\-7-7-7--77|
d|-x-x-x--xx/-x-x-x--xx/-x-x-x--xx\-x-x-x--xx| 2x
a|-7-7-7--77/-5-5-5--55/-3-3-3--33\-5-5-5--55|
E|-------------------------------------------|

e|--------------------------------------------------------|
b|--------------------------------------------------------|
g|-9-9-9--99/-7-7-7--77/-5-5-5--55\-11--------------------|
d|-x-x-x--xx/-x-x-x--xx/-x-x-x--xx\-x-
                        
                    
Tap to rate this tab
# A B C D E F G H I J K L M N O P Q R S T U V W X Y Z