Song name
# A B C D E F G H I J K L M N O P Q R S T U V W X Y Z

Deftones - Ihabia tab

-------------------------------------------------------------------------------
			     Ihabia - Deftones    
-------------------------------------------------------------------------------

Email: richardh33@hotmail.com

Tuning: drop D flat (Db Ab Db Gb Bb eb)

album: around the fur

Riff 1

eb|---------------------------------------------------------------------------|
Bb|---------------------------------------------------------------------------|
Gb|---------------------------------------------------------------------------|
Db|---------------------------333---------------------------------------------|
Ab|-0-2-2-2-0-2-2-2-0-2-2-2-2-----0-2-2-2-0-2-2-2-0-2-2-2-2-0-0-0-------------|
Db|-0-2-2-2-0-2-2-2-0-2-2-2-2-----0-2-2-2-0-2-2-2-0-2-2-2-2-0-0-0-------------|

Riff 2

eb|---------------------------------------------------------------------------|
Bb|---------------------------------------------------------------------------|
Gb|---------------------------------------------------------------------------|
Db|---------------------------------------------------------------------------|	
Ab|-/6-6-6-6-6-6-7-\-2-/6-6-6-6-6-6-7-\-2-------------------------------------|
Db|-/6-6-6-6-6-6-7-\-2-/6-6-6-6-6-6-7-\-2-------------------------------------|

Riff 3

eb|---------------------------------------------------------------------------|
Bb|---------------------------------------------------------------------------|
Gb|---------------------------------------------------------------------------|
Db|---------------------------------------------------------------------------|	
Ab|-777777777777776666666666666666-2-0(0)-------------------------------------|
Db|-777777777777776666666666666666-2-0(0)-------------------------------------|

Riff 4

eb|---------------------------------------------------------------------------|
Bb|---------------------------------------------------------------------------|
Gb|---------------------------------------------------------------------------|
Db|---------------------------------------------------------------------------|	
Ab|-2/6--6-xx-7-xx-2----------------------------------------------------------|
Db|-2/6--6-xx-7-xx-2----------------------------------------------------------|

song order

 Riff 1 x8
 Riff 2 x2
 Riff 1 x6
 Riff 2 x4
 Riff 3 x3
 Riff 4 x4
 Riff 1 x4
 Riff 2 x4
 Riff 3 x1


tab key.

 /  slide up
 \  slide down
===============================================================================
Tap to rate this tab
# A B C D E F G H I J K L M N O P Q R S T U V W X Y Z