Guitaretab - guitar tabs
Song name
# A B C D E F G H I J K L M N O P Q R S T U V W X Y Z

Deftones - Gods Hands tab

There is a version of this floating around, but it's not right, so I tabbed it out 
hope you enjoy.

Tuning E-A-D-G-B-E

Intro Pt. 1
E-----------------------------------------|
B-----------------------------------------|
G-----------------------------------------|
D--4-4-5--5--4-5-4-2----------------------|
A--2-2-3--3--2-3-2-0----------------------|
E--0-----------0---------4----------------|


E----------------------------------------------|
B----------------------------------------------|
G------------7-7-7-7-6-6-6---------------------|
D--4-4-5--5-5-5-5-4-4-4--4-5-4-2-8-------------|
A--2-2-3----------------------2-3-2-0-6--------|
E--0----------------------------0---------4----|

E----------------------------------------------|
B----------------------------------------------|
G------------6-6-6-6-7-7-7---------------------|
D--4-4-5--4-4-4-4-5-5-5-4-5-4-2-8--------------|
A--2-2-3----------------------2-3-2-0-6--------|
E--0----------------------------0---------4----|

End On

D------
A-2---
E-0---

Verse

E
B--8-10------8-6-5-----------|
G--7/9--------7-5-4----------|
D----------------------------|
A----------------------------|
E----------------------------|

Bridge
[ Tab from: http://www.guitaretab.com/d/deftones/73926.html ]
E------------------------------------------------------------------------|
B------------------------------------------------------------------------|
G------------------------------------------------------------------------|
D------------------------------------------------------------------------|
A-7-8-8-8-8-8-8--7-8-8-8-8-8-8-8-8-8--5-6-6-6-6-6-6-5-3-3-3-3-3-3-2-2-2--|
E-5-6-6-6-6-6-6--5-6-6-6-6-6-6-8-8-8--3-4-4-4-4-4-4-3-1-1-1-1-1-1-0-0-0--|

E------------------------------------------------------------------------|
B------------------------------------------------------------------------|
G------------------------------------------------------------------------|
D7-8-8-8-8-8-8--7-8-8-8-8-8-8-8-8-8--5-6-6-6-6-6-6-5-3-3-3-3-3-3-2-2-2---|
A-X-X-X-X-X-X-X-X-X-X-X-X-X-X-X-X-X-X-X-X-X-X-X-X-X-X-X-X-X-X-X-X-X-X----|
E-5-6-6-6-6-6-6--5-6-6-6-6-6-6-8-8-8--3-4-4-4-4-4-4-3-1-1-1-1-1-1-0-0-0--|

E-----------------------------|
B-----------------------------|
G-----------------------------|
D-----------------------------|
A-6-8-X-X-X-5-4-X-X-X---------|
E-5-6-X-X-X-3-2-X-X-X---------|

*Pick scrapes up neck following bridge*

Outro

E-----------------------------------|
B-----------------------------------|
G-----------------------------------|
D-----------------------------------|
A-7-8-8-8-14-14-12-12-7-------------|
E-5-6-6-6-12-12-10-10-5-------------|

(last time only)

E-------------------------------------|
B-------------------------------------|
G-------------------------------------|
D-------------------------------------|
A-7-8-8-8-14-14-12-12-7--8------------|
E-5-6-6-6-12-12-10-10-5--6------------|
Related for Gods Hands tab
Advertisement will be closed in 10 seconds