Song name
# A B C D E F G H I J K L M N O P Q R S T U V W X Y Z

Deftones - Hump tab

Deftones - Hump
Album: Like Linus (Early Demo Pre-Adrenaline)

Tuning: E-A-D-G-B-E

Intro

E----------------------------------------------------------|
B----------------------------------------------------------|
G----------------------------------------------------------|
D---------------------------------------------<5>-<5>-<5>--|
A-9-11-6---12-11-6----x-x-x-x-x-x-x-x-x-x-x-x--------------|
E-7-9--4---10-9--4----x-x-x-x-x-x-x-x-x-x-x-x--------------|

Intro (pt2)/Verse

E----------------------------------------------|
B----------------------------------------------|
G----------------------------------------------|
D----------------------------------------------|
A-6-6-6-6-6-6-6-9-11--6-6-6-6-6-6-6-12--11-----|
E-4-4-4-4-4-4-4-7--9--4-4-4-4-4-4-4-10--9------|

Chorus

E--------------------------------|
B--------------------------------|
G--------------------------------|
D-6-6-6-6-6-6-6------------------|
A-4-4-4-4-4-4-4-7-7-7-7-2-2-2-2--|
E---------------5-5-5-5-0-0-0-0--|

Bridge (tremelo picking throughout a little flanger sounds good too)

E----------------------------|
B----------------------------|
G-13--14--11---13--14--11-9--|
D-11--12--9----11--12--9--7--|
A----------------------------|
E----------------------------|

that's it, you figure out how to put it all together, but it's an easy but really fun 
to play.  Enjoy.
Tap to rate this tab
# A B C D E F G H I J K L M N O P Q R S T U V W X Y Z