Song name
# A B C D E F G H I J K L M N O P Q R S T U V W X Y Z

Deftones - Hole In The Earth tab

I'm pretty sure that Steph plays it on a seven string, but this is how i play it on a 
string and it sounds just fine.

tuning: Eb, Bb, Gb, Db, Ab, Ebbb (e flat, b flat, d flat, a flat, e flat drop 3 whole steps)

song: hole in the earth
Album: Saturday Night Wrist
Artist: Deftones
tabbed by: billyofbodom71

if you have any questions about the deftones, or about this tab, email me at
deftones44330@yahoo.com

Intro Riff
[--------------------------------------------------------------------------]
[--------------------------------------------------------------------------]
[--------------------------------------------------------------------------]
[-3-3-3-3---1---3---1---3-3-3-3-3--1-1-1-1-1-1-1-1-1-1-1-1-1-1-1-1-1-1-1-1-]
[-3-3-3-3---1---3---1---3-3-3-3-3--1-1-1-1-1-1-1-1-1-1-1-1-1-1-1-1-1-1-1-1-]
[-3-3-3-3---1---3---1---3-3-3-3-3--1-1-1-1-1-1-1-1-1-1-1-1-1-1-1-1-1-1-1-1-]

[--------------------------------------------------------------------------]
[--------------------------------------------------------------------------]
[--------------------------------------------------------------------------]
[-3-3--1-1--3-3--1-1--3-3--1-1--3-3-3-3-3--1-1-1-1-1-1-1-1-1-1-1-1-1-1-1-1-]
[-3-3--1-1--3-3--1-1--3-3--1-1--3-3-3-3-3--1-1-1-1-1-1-1-1-1-1-1-1-1-1-1-1-]
[-3-3--1-1--3-3--1-1--3-3--1-1--3-3-3-3-3--1-1-1-1-1-1-1-1-1-1-1-1-1-1-1-1-]

this part is the end of the line above
[-----------]
[-----------]
[-----------]
[-1-1-1-1---]
[-1-1-1-1---]
[-1-1-1-1---]

[---------------------------------------------]
[---------------------------------------------]
[---------------------------------------------]
[-3-3-3-3---1---3---1---3-3-3-3-3--1-let-ring-]
[-3-3-3-3---1---3---1---3-3-3-3-3--1-let-ring-]
[-3-3-3-3---1---3---1---3-3-3-3-3--1-let-ring-]

Verse
[------------------------------------------------------------------]
[------------------------------------------------------------------]
[-12-12-12-12-12-12-12\13-13-13-13-13/7-7-7-7-7-7-7\12-12-12\13-13-]
[------------------------------------------------------------------]
[-10-10-10-10-10-10-10\11-11-11-11-11/5-5-5-5-5-5-5\10-10-10\11-11-]
[------------------------------------------------------------------]

guitar 2 plays this right before the chorus
[----------------------------------------]
[----------------------------------------]
[-12\13/12--14\15/14--12\13/12--14\15/14-]
[----------------------------------------]
[----------------------------------------]
[----------------------------------------]

Chorus
[--10-------10-------13-------13-------10-------10-------13-------13-------]
[-----11-------11-------11-------11-------11-------11-------11-------11----]
[--------12-------12-------12-------12-------12-------12-------12-------12-]
[--------------------------------------------------------------------------]
[--------------------------------------------------------------------------]
[--------------------------------------------------------------------------]

[--10-let-ring-]
[--------------]
[--------------]
[--------------]
[--------------]
[--------------]

bridge
[--------------------------------------------------------------------------]
[--------------------------------------------------------------------------]
[--------------------------------------------------------------------------]
[-3-3-3-3---1---3---1---3-3-3-3-3--1-1-1-1-1-1-1-1-1-1-1-1-1-1-1-1-1-1-1-1-]
[-3-3-3-3---1---3---1---3-3-3-3-3--1-1-1-1-1-1-1-1-1-1-1-1-1-1-1-1-1-1-1-1-]
[-3-3-3-3---1---3---1---3-3-3-3-3--1-1-1-1-1-1-1-1-1-1-1-1-1-1-1-1-1-1-1-1-]

[-----------------------------------------------------]
[-----------------------------------------------------]
[-----------------------------------------------------]
[-3-3--1-1--3-3--1-1--3-3--1-1--3-3-3-3-3--1-let-ring-]
[-3-3--1-1--3-3--1-1--3-3--1-1--3-3-3-3-3--1-let-ring-]
[-3-3--1-1--3-3--1-1--3-3--1-1--3-3-3-3-3--1-let-ring-]

Verse
[------------------------------------------------------------------]
[------------------------------------------------------------------]
[-12-12-12-12-12-12-12\13-13-13-13-13/7-7-7-7-7-7-7\12-12-12\13-13-]
[------------------------------------------------------------------]
[-10-10-10-10-10-10-10\11-11-11-11-11/5-5-5-5-5-5-5\10-10-10\11-11-]
[------------------------------------------------------------------]

guitar 2 plays this right before the chorus
[----------------------------------------]
[----------------------------------------]
[-12\13/12--14\15/14--12\13/12--14\15/14-]
[----------------------------------------]
[----------------------------------------]
[----------------------------------------]

Chorus
[--10-------10-------13-------13-------10-------10-------13-------13-------]
[-----11-------11-------11-------11-------11-------11-------11-------11----]
[--------12-------12-------12-------12-------12-------12-------12-------12-]
[--------------------------------------------------------------------------]
[--------------------------------------------------------------------------]
[--------------------------------------------------------------------------]

[--10-------10-------13-------13-------10-------10-------13-------13-------]
[-----11-------11-------11-------11-------11-------11-------11-------11----]
[--------12-------12-------12-------12-------12-------12-------12-------12-]
[--------------------------------------------------------------------------]
[--------------------------------------------------------------------------]
[--------------------------------------------------------------------------]

[--10-------10-------13-------13-------10-------10-------13-------13-------]
[-----11-------11-------11-------11-------11-------11-------11-------11----]
[--------12-------12-------12-------12-------12-------12-------12-------12-]
[--------------------------------------------------------------------------]
[--------------------------------------------------------------------------]
[--------------------------------------------------------------------------]

bridge 2 (its very quiet, but its there, this is the part where he sings
"this is the end....somewhere")
[------------5-------------------------]
[----8---5------8---5------------------]
[-5------------------------------------]
[--------------------------------------]
[--------------------------------------]
[--------------------------------------]

Chorus
[--10-------10-------13-------13-------10-------10-------13-------13-------]
[-----11-------11-------11-------11-------11-------11-------11-------11----]
[--------12-------12-------12-------12-------12-------12-------12-------12-]
[--------------------------------------------------------------------------]
[--------------------------------------------------------------------------]
[--------------------------------------------------------------------------]

[--10-------10-------13-------13-------10-------10-------13-------13-------]
[-----11-------11-------11-------11-------11-------11-------11-------11----]
[--------12-------12-------12-------12-------12-------12-------12-------12-]
[--------------------------------------------------------------------------]
[--------------------------------------------------------------------------]
[--------------------------------------------------------------------------]

[--10-------10-------13-------13-------10-------10-------13-------13-------]
[-----11-------11-------11-------11-------11-------11-------11-------11----]
[--------12-------12-------12-------12-------12-------12-------12-------12-]
[--------------------------------------------------------------------------]
[--------------------------------------------------------------------------]
[--------------------------------------------------------------------------]

bridge 3
[----------------------------------------------]
[----------------------------------------------]
[----------------------------------------------]
[-3-3-3-3--1--3--1--3--1-----------------------]
[-3-3-3-3--1--3--1--3--1-----------------------]
[-3-3-3-3--1--3--1--3--1-----------------------]

[----------------------------------------------]
[----------------------------------------------]
[----------------------------------------------]
[-3-3-3-3--1--3--1--3--1-----------------------]
[-3-3-3-3--1--3--1--3--1-----------------------]
[-3-3-3-3--1--3--1--3--1-----------------------]

[----------------------------------------------]
[----------------------------------------------]
[----------------------------------------------]
[-3-3-3-3--1--3--1--3--1-----------------------]
[-3-3-3-3--1--3--1--3--1-----------------------]
[-3-3-3-3--1--3--1--3--1-----------------------]

bridge 4
[----------------------------------------------]
[----------------------------------------------]
[----------------------------------------------]
[-3-3-3-1--3-3-3-1--3-3-3-1--3-3-3-1-----------]
[-3-3-3-1--3-3-3-1--3-3-3-1--3-3-3-1-----------]
[-3-3-3-1--3-3-3-1--3-3-3-1--3-3-3-1-----------]

[----------------------------------------------]
[----------------------------------------------]
[----------------------------------------------]
[-3-3-3-1--3-3-3-1--3-3-3-1--3-3-3-1-----------]
[-3-3-3-1--3-3-3-1--3-3-3-1--3-3-3-1-----------]
[-3-3-3-1--3-3-3-1--3-3-3-1--3-3-3-1-----------]

[----------------------------------------------]
[----------------------------------------------]
[----------------------------------------------]
[-3-3-3-1--3-3-3-1--3-3-3-1--3-3-3-1-----------]
[-3-3-3-1--3-3-3-1--3-3-3-1--3-3-3-1-----------]
[-3-3-3-1--3-3-3-1--3-3-3-1--3-3-3-1-----------]

[----------------------------------------------]
[----------------------------------------------]
[----------------------------------------------]
[-3-3-3-1--3-3-3-1--3-3-3-1-let-ring-----------]
[-3-3-3-1--3-3-3-1--3-3-3-1-let-ring-----------]
[-3-3-3-1--3-3-3-1--3-3-3-1-let-ring-----------]

ending fades out (repeat as many times needed)
[--10-------10-------10-------13-------13-------13-------]
[-----11-------11-------11-------11-------11-------11----]
[--------12-------12-------12-------12-------12-------12-]
[--------------------------------------------------------]
[--------------------------------------------------------]
[--------------------------------------------------------]
Tap to rate this tab
 
# A B C D E F G H I J K L M N O P Q R S T U V W X Y Z