Song name
# A B C D E F G H I J K L M N O P Q R S T U V W X Y Z

Deftones - Combat tab

Tabbed by Devin Davis
Awesome song on Deftones new album "Saturday Night Wrist"
Tuned A Half step down Drop D
This is how i play it on a 6 string guitar.
Stef plays it on a 7 string

Intro
|---------------------------------|
|---------------------------------|
|---------------------------------|
|---------------------------------| x 1
|-----------10----8-8-8-8-8-8-8-8-|
|-10--10-10----10-----------------|

|-----------------------------------------------------------------|
|-----------------------------------------------------------------|
|-----------------------------------------------------------------|
|----------10------------------------------10---------------------| x 2
|----------------8-8-8-8-8-8-8-8-----------------8-8-8-8-8-8-8-8--|
|-10--10-10---10------------------10--10-10---10------------------|


Chorus 1
|--------------------------------------------------------|
|--------------------------------------------------------|
|--------------------------------------------------------|
|-5-5----5-3-3-8-----5-5------8-5----5-5----8-5--5-5--3--|
|-5-5-x8-5-3-3-8-x1--5-5-x 8--8-5-x1-5-5-x4-8-5--5-5--3--|
|-5-5----5-3-3-8-----5-5------8-5----5-5----8-5--5-5--3--|


Verse
|-------------------|
|-------------------|
|-----------5----5--|
|-1----0----5----5--|
|-1----0----3----3--|
|-1----0----5----5--|


Prechorus
|---------------------------------|
|---------------------------------|
|-5--5-5--5--5--------------------|
|-5--5-5--5--5--x--3-3-3-3-3-3-3--|
|-3--3-3--3--3--x--3-3-3-3-3-3-3--|
|-5--5-5--5--5--x--3-3-3-3-3-3-3--|


Chorus 2
|------------------------------------------------------------------------|
|------------------------------------------------------------------------|
|------------------------------------------------------------------------|
|-5-5----5-3-3-8----5-5----5-3-3----8-5-5-5-8-5-5-5-3-6-6-3-6----6-6-6-3-|
|-5-5-x8-5-3-3-8-x1-5-5-x8-5-3-3-x1-8-5-5-5-8-5-5-5-3-6-6-3-6-x2-6-6-6-3-|
|-5-5----5-3-3-8----5-5----5-3-3----8-5-5-5-8-5-5-5-3-6-6-3-6----6-6-6-3-|


Bridge
|-----------------------------------------------------------|
|-----------------------------------------------------------|
|-----------------------------------------------------------|
|-0----1----5----3----1-----5----3----1-----5----3----1-----|
|-0-x8-1-x8-5-x8-3-x8-1-x16-5-x8-3-x8-1-x16-5-x8-3-x8-1-x16-|
|-0----1----5----3----1-----5----3----1-----5----3----1-----|

Ending
|---------------------------------------|
|---------------------------------------|
|---------------------------------------|
|-5-5---5-5--3-6-6-3-6-----5-5--5-5--3--|
|-5-5---5-5--3-6-6-3-6-x3--5-5--5-5--3--|
|-5-5---5-5--3-6-6-3-6-----5-5--5-5--3--|

Hope you like it!
If your have any questions, e-mail me at crayola_22_88@yahoo.com
Tap to rate this tab
# A B C D E F G H I J K L M N O P Q R S T U V W X Y Z