Song name
# A B C D E F G H I J K L M N O P Q R S T U V W X Y Z

Deftones - Uuddlrlrab Select Start tab

yet again i have to tab a song myself because no one else has done it yet. here it is, 
tuning is dropped c:

intro:

d-----------------------------|
a-----------------------------|
f---8---6-6-8-9-8-------------|    x2
c-8---8-----------6-4-4-4-(6)-|
g-----------------------------|
c-----------------------------|

(6) is quite hard to hear


then in the background theres a faint


d---              d---|
a-4-              a-3-|
f-4-  x16 ish     f-3-|  x16 ish
c---              c---|
g---              g---|
c---              c---|

then:

d--------------------------------------------------|
a---------8----------------------------------------|
f---8-----8--12/15-16-15---13--8/9/8/9-13-15-16-15-|
c-8---8---8----------------------------------------|
g--------------------------------------------------|
c--------------------------------------------------|


then

d-------------      d------- --------------------------------------|
a-------------      a------- --------------------------------------|
f-8-8-9-11-8-- x2   f------- --------------------------------------|
c-------------      c-6-6-6- -6-6-6...4-4-4------------------------|
g-------------      g------- --------------------------------------|
c-------------      c------- ---------------  in the background 16-| times each

outro:

----------------------|
----------------------|
-8-----8-8--8-9-11-8--|   <- sounds quite similar too
-8---8---8------------|
-6-6------------------|
----------------------|


/ = slide

again submit changes to t0mmy9@hotmail.com and please rate it 5 stars, thanks!
Tap to rate this tab
# A B C D E F G H I J K L M N O P Q R S T U V W X Y Z