Song name
# A B C D E F G H I J K L M N O P Q R S T U V W X Y Z

Deftones - Digital Bath Acoustic tab

----------------------------------------------------------------------------
		     Digital Bath (acoustic) - Deftones
----------------------------------------------------------------------------
Tabbed by: Skipper Mikkel
Email: Mikkel_sejl@hotmail.com

Tuning: Drop C (low to high - CADGBE)


Verse 1:

Riff A:  x 8
-x-----x-x-|
-x-----x-x-|
-x-----x-x-|
-5~----5-5-|
-2~----2-3-|
-4~----4-0-|

You move
Like I want to 
To see
Like your eyes do 


Post-verse:

Riff B:  x 2
-x-x-x-x--x--x---x--|
-x-x-x-x--x--x---x--|
-9-9-9/12-12-15--14-|
-x-x-x-x--x--x---x--|
-7-7-7/10-10-13--12-|
-0-0-0-0--0--0---0--|

We are
Downstairs
Where no one


Verse 2: Riff A  x 4

Can see
New life
Breakaway


Pre-chorus:

Riff C:  x 2
-x-x-----------|
-x-x-----------|
-x-x-----------|
-0-0-2b3r2-0---|
-0-0-----------|
-2-2---------0-|

'Cause tonight


Chorus: Riff A  x 4

I feel like more


Pause:

-x--|
-x--|
-x--|
-0~-|
-0~-|
-2~-|


Verse 3: Riff A  x 4

You make 
The water warm 


Post-verse: Riff B  x 2

You taste
Foreign
And I know


Verse 4: Riff A  x 4

You can see
The cord
Breakaway


Pre-chorus: Riff C  x 2

'Cause tonight

 
Chorus: Riff A  x 4

I feel like more


Pause:


Verse 5: Riff A  x 8

You breathed
Then you stop 
I breathed
Then dried you off


Bridge:

Riff D:  x 1
-x-x-x-x-x-x-x--x-x---x-x-x--x-x-x-x-x-x-|
-x-x-x-x-x-x-x--x-x---x-x-x--x-x-x-x-x-x-|
-7-7-7-7-9-9/10\9-7---9-9/10\9-7-7-7-5-5-|
-x-x-x-x-x-x-x--x-x---x-x-x--x-x-x-x-x-x-|
-5-5-5-5-7-7/8-\7-5---7-7/8-\7-5-5-5-3-3-|
-0-0-0-0-0-0-0--0-0---0-0-0--0-0-0-0-0-0-|

And tonight 
I


Chorus: Riff A  x 4

Feel like more
Tonight


Post-verse: Riff B  x 2:

Uhhh
Ahhh ahh


Chorus: Riff A  x 4

Feel like more
Tonight 


Bridge: Riff D  x 1

I feel 
Like more


Chorus: Riff A  x 4

Feel like more
Huh


Pause:

Tonight 
I feel more


Outro: Riff A  x 4
Tap to rate this tab
# A B C D E F G H I J K L M N O P Q R S T U V W X Y Z