Guitaretab - guitar tabs
Song name
# A B C D E F G H I J K L M N O P Q R S T U V W X Y Z

Deftones - Rats Rats Rats tab

-------------------------------------------------------------------------------
  	   	             RATS! RATS! RATS!
-------------------------------------------------------------------------------

Here it is the greatest song from Saturday Night Wrist (in my opinion).
It takes a long time to be tabbed so enjoy it!

TUNING: Drop F# (7 Strings Guitar)

-------------------------------------------------------------------------------
1. Intro
-------------------------------------------------------------------------------
The rhythm is very easy if you learn it.
There are irregular measures so check it out, it goes like this:

     ----  ----  ----  ----   
 7   |  |  |  |  |  |  |  |   |     |     |
 4   |  |  |  |  |  |  |  |   |     |     |
     o  o  o  o__o  o  o  o   o     o_____o

C#|----------------------------------------|
G#|----------------------------------------|
E |--10-10-10-10----10-10-10--10----10-----|
B |--11-11-11-11----11-11-11--11----11-----|
F#|--9--9--9--9-----9--9--9---9-----9------|
C#|--9--9--9--9-----9--9--9---9-----9------|
F#|--9--9--9--9-----9--9--9---9-----9------|


     ----  ----  ----  ----   
 6   |  |  |  |  |  |  |  |   |     |
 4   |  |  |  |  |  |  |  |   |     |
     o  o  o  o__o  o  o  o   o     o

C#|----------------------------------------|
G#|----------------------------------------|
E |--10-10-10-10----10-10-10--10----10-----|
B |--11-11-11-11----11-11-11--11----11-----|
F#|--9--9--9--9-----9--9--9---9-----9------|
C#|--9--9--9--9-----9--9--9---9-----9------|
F#|--9--9--9--9-----9--9--9---9-----9------|


to verse...
C#|----------------------|
G#|----------------------|
E |----------------------|
B |--5/8--7--------------|
F#|----------7--5/7--4*--|
C#|--3/6--5--------------|
F#|----------7--5/7------|

-------------------------------------------------------------------------------
2. Verse 1
-------------------------------------------------------------------------------

     ----  ----  ----  ----   
 7   |  |  |  |  |  |  |  |   |     |     |             --------
 4   |  |  |  |  |  |  |  |   |     |     |			|
     o  o  o  o__o  o  o  o   o     o_____o			|
								|
C#|----------------------------------------|			|
G#|----------------------------------------|			|
E |--10-10-10-10----10-10-10--10----10-----|			|
B |--11-11-11-11----11-11-11--11----11-----|			|
F#|--9--9--9--9-----9--9--9---9-----9------|			|
C#|--9--9--9--9-----9--9--9---9-----9------|			|
F#|--9--9--9--9-----9--9--9---9-----9------|			|
								| x4
								|
     ----  ----  ----  ----   					|
 6   |  |  |  |  |  |  |  |   |     |				|
 4   |  |  |  |  |  |  |  |   |     |				|
     o  o  o  o__o  o  o  o   o     o				|
								|
C#|----------------------------------------|			|
G#|----------------------------------------|			|
E |--10-10-10-10----10-10-10--10----10-----|			|
B |--11-11-11-11----11-11-11--11----11-----|			|
F#|--9--9--9--9-----9--9--9---9-----9------|			|
C#|--9--9--9--9-----9--9--9---9-----9------|			|
F#|--9--9--9--9-----9--9--9---9-----9------|		--------


to chorus...
C#|-------------|
G#|-------------|
E |--6---6---6--|
B |--7---7---7--|
F#|--5---5---5--|
C#|--5---5---5--|
F#|--5---5---5--|

-------------------------------------------------------------------------------
3. Chorus
-------------------------------------------------------------------------------

     ---------------   ------------
                   x4              x4
C#|-------------------|--------------|
G#|-------------------|--------------|
E |-------------------|--------------|
B |--10--10--10-10-10-|-8--8--8-8-8--|
F#|--10--10--10-10-10-|-8--8--8-8-8--|
C#|--8---8---8--8--8--|-6--6--6-6-6--|
F#|--8---8---8--8--8--|-6--6--6-6-6--|


     ---------------   ------------
                   x4              x4 
C#|-------------------|--------------|-----|
G#|-------------------|--------------|-----|
E |-------------------|--------------|-----|
B |--10--10--10-10-10-|-8--8--8-8-8--|-----|
F#|--8---8---8--8--8--|-6--6--6-6-6--|--0--|
C#|--8---8---8--8--8--|-6--6--6-6-6--|--0--|
F#|--8---8---8--8--8--|-6--6--6-6-6--|--0--|
 
    ----------------------
                         x2
C#|------------------------|---------|
G#|------------------------|---------|
E |------------------------|---------|
B |------------------------|---------| repeat this
F#|--1-1-1-0--0---1-1-1-0--|--x-x-x--|
C#|--1-1-1-0--0---1-1-1-0--|--x-x-x--|
F#|--1-1-1-0--0---1-1-1-0--|--x-x-x--| 

-------------------------------------------------------------------------------
4. Verse 2
-------------------------------------------------------------------------------
repeat this twice...
C#|------------------------------------|------------------------------------|
G#|------------------------------------|------------------------------------|
E |-10-10-10-10----10-10-10--10----10--|--10-10-10-10----10-10-10--10----10-|
B |-11-11-11-11----11-11-11--11----11--|--11-11-11-11----11-11-11--11----11-|
F#|-9--9--9--9-----9--9--9---9-----9---|--9--9--9--9-----9--9--9---9-----9--|
C#|-9--9--9--9-----9--9--9---9-----9---|--9--9--9--9-----9--9--9---9-----9--|
F#|-9--9--9--9-----9--9--9---9-----9---|--9--9--9--9-----9--9--9---9-----9--|


then...
     ----  ----  ----  ----   
 7   |  |  |  |  |  |  |  |   |     |     |
 4   |  |  |  |  |  |  |  |   |     |     |
     o  o  o  o__o  o  o  o   o     o_____o
[ Tab from: http://www.guitaretab.com/d/deftones/81197.html ]
C#|----------------------------------------|
G#|----------------------------------------|
E |--12-12-12-12----12-12-12--12----12-----|
B |--11-11-11-11----11-11-11--11----11-----|
F#|--9--9--9--9-----9--9--9---9-----9------|
C#|--9--9--9--9-----9--9--9---9-----9------|
F#|--9--9--9--9-----9--9--9---9-----9------|


     ----  ----  ----  ----   
 6   |  |  |  |  |  |  |  |   |     |
 4   |  |  |  |  |  |  |  |   |     |
     o  o  o  o__o  o  o  o   o     o

C#|----------------------------------------|
G#|----------------------------------------|
E |--12-12-12-12----12-12-12--12----12-----|
B |--11-11-11-11----11-11-11--11----11-----|
F#|--9--9--9--9-----9--9--9---9-----9------|
C#|--9--9--9--9-----9--9--9---9-----9------|
F#|--9--9--9--9-----9--9--9---9-----9------|


and then...
C#|------------------------------------|------------------------------------|
G#|------------------------------------|------------------------------------|
E |-10-10-10-10----10-10-10--10----10--|--10-10-10-10----10-10-10--10----10-|
B |-11-11-11-11----11-11-11--11----11--|--11-11-11-11----11-11-11--11----11-|
F#|-9--9--9--9-----9--9--9---9-----9---|--9--9--9--9-----9--9--9---9-----9--|
C#|-9--9--9--9-----9--9--9---9-----9---|--9--9--9--9-----9--9--9---9-----9--|
F#|-9--9--9--9-----9--9--9---9-----9---|--9--9--9--9-----9--9--9---9-----9--|

repeat the whole part...


and then to chorus...
C#|-------------|
G#|-------------|
E |--6---6---6--|
B |--7---7---7--|
F#|--5---5---5--|
C#|--5---5---5--|
F#|--5---5---5--|

-------------------------------------------------------------------------------
5. Bridge
-------------------------------------------------------------------------------
Coming from the Chorus...
				       P.M.------------------
C#|-------------------------|        |-------------------------|
G#|-------------------------|        |-------------------------|
E |-------------------------|        |-------------------------|
B |-------------------------|   or   |-------------------------|
F#|--x-x-x---x-x-x---x-x-x--|        |--0-0-0---0-0-0---0-0-0--|
C#|--x-x-x---x-x-x---x-x-x--|        |--0-0-0---0-0-0---0-0-0--|
F#|--x-x-x---x-x-x---x-x-x--|        |--0-0-0---0-0-0---0-0-0--|

(I like more the first version)

This part is really hard to play at first so practice it slowly.
Check the accents and get the style of it.

     >              >                 >
     -------    -------    -------    -------
     |-|-|-|    |-|-|-|    |-|-|-|    |-|-|-|
     | | | |    | | | |    | | | |    | | | |
     o o o o    o o o o    o o o o    o o o o
C#|--------------------------------------------|
G#|--------------------------------------------|
E |--------------------------------------------|
B |--------------------------------------------|
F#|--5-4-3-4----3-4-5-4----3-4-3-4----5-4-3-4--|
C#|--5-4-3-4----3-4-5-4----3-4-3-4----5-4-3-4--|
F#|--5-4-3-4----3-4-5-4----3-4-3-4----5-4-3-4--|


C#|--------------------|
G#|--------------------|
E |--------------------|
B |--7--5--8--7--5--8--|
F#|--5--3--6--5--3--6--|
C#|--5--3--6--5--3--6--|
F#|-(5--3--6--5--3--6)-|

( )= if you want, play those notes too.

-------------------------------------------------------------------------------
6. Verse 3
-------------------------------------------------------------------------------
repeat this twice...
C#|------------------------------------|------------------------------------|
G#|------------------------------------|------------------------------------|
E |-10-10-10-10----10-10-10--10----10--|--10-10-10-10----10-10-10--10----10-|
B |-11-11-11-11----11-11-11--11----11--|--11-11-11-11----11-11-11--11----11-|
F#|-9--9--9--9-----9--9--9---9-----9---|--9--9--9--9-----9--9--9---9-----9--|
C#|-9--9--9--9-----9--9--9---9-----9---|--9--9--9--9-----9--9--9---9-----9--|
F#|-9--9--9--9-----9--9--9---9-----9---|--9--9--9--9-----9--9--9---9-----9--|

then...
C#|------------------------------------|------------------------------------|
G#|------------------------------------|------------------------------------|
E |-12-12-12-12----12-12-12--12----12--|--12-12-12-12----12-12-12--12----12-|
B |-11-11-11-11----11-11-11--11----11--|--11-11-11-11----11-11-11--11----11-|
F#|--9--9--9--9-----9--9--9---9-----9--|--9--9--9--9-----9--9--9---9-----9--|
C#|--9--9--9--9-----9--9--9---9-----9--|--9--9--9--9-----9--9--9---9-----9--|
F#|--9--9--9--9-----9--9--9---9-----9--|--9--9--9--9-----9--9--9---9-----9--|

then repeat this five times...
C#|------------------------------------|------------------------------------|
G#|------------------------------------|------------------------------------|
E |-10-10-10-10----10-10-10--10----10--|--10-10-10-10----10-10-10--10----10-|
B |-11-11-11-11----11-11-11--11----11--|--11-11-11-11----11-11-11--11----11-|
F#|-9--9--9--9-----9--9--9---9-----9---|--9--9--9--9-----9--9--9---9-----9--|
C#|-9--9--9--9-----9--9--9---9-----9---|--9--9--9--9-----9--9--9---9-----9--|
F#|-9--9--9--9-----9--9--9---9-----9---|--9--9--9--9-----9--9--9---9-----9--|

Chino screams...and then...
			C#|-------------|
			G#|-------------|
			E |--6---6---6--|
			B |--7---7---7--|
			F#|--5---5---5--|
			C#|--5---5---5--|
			F#|--5---5---5--|

-------------------------------------------------------------------------------
7. Song Structure
-------------------------------------------------------------------------------

Intro
Verse 1
Chorus
Verse 2
Chorus
Bridge
Verse 3

-------------------------------------------------------------------------------
8. Symbols
-------------------------------------------------------------------------------
             |
             |
4th notes    o

             ----
             |  |
             |  |
8th notes    o  o

             -------
             |-|-|-|
             | | | |
16th notes   o o o o

-------------------------------------------------------------------------------
TABBED BY: Rats!Rats!Rats! 2007
-------------------------------------------------------------------------------
Related for Rats Rats Rats tab