Song name
# A B C D E F G H I J K L M N O P Q R S T U V W X Y Z

Deftones - The Boys Republic Acoustic tab

I tab this song month ago..
and i think its correct..
for me...
any comments or suggestion plz. email me at Bam_marfera@yahoo.com
I play it on CGCFAd...

Deftones
The boy's republic

intro
d|--------------------------------------|
A|--------------------------------------|
F|--------------------------------------|
C|--------------------------------------|(just listen)
G|---1212h13-12h13------99h10-9h10------|
C|--0----------------0---------------0~-|

Drums in..percussion
riff:2
d|-------------------------------------|
A|-------------------------------------|
F|--141414-141414\777/111111-----------|
C|--0-0-0--121212\555/9-9-9------------|
G|--0-0-0--121212\555/9-9-9------------|x4 2nd intro
C|--0-0-0--121212\555/9-9-9------------|

Verse
       blue...           star...
d|---------------------------------------------|
A|---------------------------------------------|
F|----777777--777777--777777--777777-----------|
C|----000000--555555--000000--555555-----------|
G|----000000--555555--000000--555555-----------|
C|----000000--555555--000000--555555-----------|Same pattern in 2nd stanza..

Chorus
     On everyone.....
d|----------------------|
A|----------------------|
F|----555555555--55-----|
C|----333333333--00-----|just listen
G|----333333333--00-----|
C|----333333333--00-----|

Same in intro but i has a little twist on last part
sing 1st verse lyrics with this chords....
d|----------------------------------------------------------|
A|----------------------------------------------------------|
F|--141414-141414\777/111111----141414-141414\151515/111111-|
C|--0-0-0--121212\555/9-9-9-----0-0-0--x-x-x-\x-x-x-/x-x-x--|
G|--0-0-0--121212\555/9-9-9--x4-0-0-0--121212\131313/9-9-9--|
C|--0-0-0--121212\555/9-9-9-----0-0-0-----------------------|

back 2 verse chords
then chorus..
after chorus go to 2nd riff and sing the blue kinda thing..

bridge:
d|------------------------------------------------------------------|
A|------------------------------------------------------------------|
F|--141414-111111-141414-141414-141414-151515-141414-121212/111111--|
C|--0-0-0--x-x-x--0-0-0--x-x-x--0-0-0--x-x-x--0-0-0--x-x-x-/x-x-x---|
G|--0-0-0--9-9-9--0-0-0--121212-0-0-0--131313-0-0-0--101010/9-9-9---|
C|--0-0-0---------0-0-0---------0-0-0---------0-0-0-----------------|

Chorus again...
2nd riff with lyrics
2nd bridge...

bridge:
d|------------------------------------------------------------------|
A|------------------------------------------------------------------|
F|--141414-151515/141414/121212/111111/777--------------------------|
C|--0-0-0--x-x-x-/x-x-x-/x-x-x-/x-x-x-/555--------------------------|
G|--0-0-0--131313/121212/101010/9-9-9-/555--------------------------|
C|--0-0-0-----------------------------------------------------------|

Chorus
     On everyone.....
d|----------------------|
A|----------------------|
F|----555555555--55-----|
C|----333333333--00-----|last chorus
G|----333333333--00-----|let it ring...
C|----333333333--00-----|

Deftones rock...
Hope you get it right....
Peace out to Montevista guys...
sa mga classhate nako....
yaha!!!
Tap to rate this tab
 
# A B C D E F G H I J K L M N O P Q R S T U V W X Y Z