Degarmo And Key - I Use The J Word tab

-------------------------------------------------------------------------------
			     I Use The J Word-DeGarmo & Key
-------------------------------------------------------------------------------
Tabbed by:Kenneth Petersen
Email: k.pete66@yahoo.com

From the CD Heat It Up
1993 The Forefront Communications Group Inc

Tuning:Standard

   Intro

e|---------------------------------------------------------------------------|
B|---------------------------------------------------------------------------|
G|-5h7-7-7--5-5-5-5---5h7-7-7----5h7-7-7--5-5-5-5---5h7-7-7------------------|
D|-5h7-7-7--5-5-5-5-5-5h7-7-7----5h7-7-7--5-5-5-5-5-5h7-7-7------------------|
A|------------------5-----------------------------5--------------------------|
E|---------------------------------------------------------------------------|

   Verse 1,3
 
e|---------------------------------------------------------------------------|
B|---------------------------------------------------------------------------|
G|-5h7-7-7--5h7-7-7--5h7-7-7-5-5-5-5---2-5-----------------------------------|
D|-5h7-7-7--5h7-7-7--5h7-7-7-5-5-5-5-5-2-5--5-5------------------------------|
A|-----------------------------------5-0-3--5-5------------------------------|
E|------------------------------------------3-3------------------------------|

   Verse 2,4

e|---------------------------------------------------------------------------|
B|---------------------------------------------------------------------------|
G|-5h7-7-7-5-5-5-5---5h7-7-7-5h7-7-7-5-5-5-5---2--5--------------------------|
D|-5h7-7-7-5-5-5-5-5-5h7-7-7-5h7-7-7-5-5-5-5-5-2--5-5-5----------------------|
A|-----------------5-------------------------5-0--3-5-5----------------------|
E|--------------------------------------------------3-3----------------------|

  Chorus

e|--------------------|------------------------------------------------------|
B|--------------------|------------------------------------------------------|
G|-7---------5-------.|-5h7-7-7-5-5-5-5---5h7-7-7-5--------------------------|
D|-7----7----5----5---|-5h7-7-7-5-5-5-5-5-5h7-7-7-5--5-5---------------------|
A|-5----7----3----5--.|-----------------5---------3--5-5---------------------|
E|------5---------3---|------------------------------3-3---------------------|

  Bridge

e|---------------------------------------------------------------------------|
B|---------------------------------------------------------------------------|
G|-3-5-3-5-7-7-7-7-5-5-5-5-3-3-3-3-5-5-5-5-7-7-7-7-5-5-5-5-3-3-3-3-2---------|
D|-3-5-3-5-7-7-7-7-5-5-5-5-3-3-3-3-5-5-5-5-7-7-7-7-5-5-5-5-3-3-3-3-2-3-2-----|
A|-1-3-1-3-5-5-5-5-3-3-3-3-1-1-1-1-3-3-3-3-5-5-5-5-3-3-3-3-1-1-1-1-0-----3---|
E|---------------------------------------------------------------------------|

  Rhythm Guitar w/solo

e|---------------------------------------------------------------------------|
B|---------------------------------------------------------------------------|
G|-5h7-7-7--5h7-7-7--5h7-7-7-------------------------------------------------|
D|-5h7-7-7--5h7-7-7--5h7-7-7-------------------------------------------------|
A|---------------------------------------------------------------------------|
E|---------------------------------------------------------------------------|



************************************

| /   slide up
| \   slide down
| h   hammer-on
| p   pull-off
| ~   vibrato
| +   harmonic
| x   Mute note
| b   Bend
| pb  Pre-bend
| br  Bend release
| pbr Pre-bend release
| brb Bend release bend

************************************
Tap to rate this tab
 
# A B C D E F G H I J K L M N O P Q R S T U V W X Y Z