Song name
# A B C D E F G H I J K L M N O P Q R S T U V W X Y Z

Deichkind - Arbeit Nervt tab

E-----------------------------|
H-----------------------------|
G-----------------------------|
D-----------------------------|
A--------0---4--3-------------|
E-----------------------------|

CHORDS :
E-----------------------------|
H-----------------------------|
G----------6----5-------------|
D----7-----6----5-------------|
A----7-----4----3-------------|
E----5------------------------|


Tabbed  by LR
Tap to rate this tab
 
# A B C D E F G H I J K L M N O P Q R S T U V W X Y Z