Deichkind - Silberweidenpark tab

-------------------------------------------------------------------------------
                        Silberweidenpark   -  Deichkind
-------------------------------------------------------------------------------
Tabbed by: Martin Messner
Email: bigbonsai@hotmail.de

Tuning: E-Standard

//////////////////////////////////////////////
//                                          //
//  RATING THIS TAB TAKES ABOUT 5 SECONDS   //
//  AND HELPS ME TO IMPROVE MY WORK         //
//                                          //
//////////////////////////////////////////////

very easy and beautiful song:

Intro / Main theme
e|--------0-------------0-------0---|
B|------0-----0-------0-------0-----|
G|----1-----1---1---3-----3-------1-|
D|----------------------------------|
A|----------------------------------|
E|--0-------------------------------|repeated several times

then as harmonical chords
e|--0------0--------0--0--|
B|--0------0--------2--3--|
G|--1------3--------2--2--|
D|--2------0--------2--2--|
A|--2------2--------0--0--|
E|--0------0--------0--0--|
    E   weird E     A (at "im Silberweidenpark")

enjoy ;)
Martin Messner
Tap to rate this tab
 
# A B C D E F G H I J K L M N O P Q R S T U V W X Y Z