Deicide - Till Death Do Us Part tab

                               Till Death Do Us Part

Tabbed by: Hate_Eternal_11
Email: blueface_20@yahoo.com

Tuning: Eb

Intro

Riff A
                      1st Tail End x 3 2nd Tail End x 1
Eb--------------------|---------------|-----------------|
Bb--------------------|---------------|-----------------|
Gb-----------10-10----|---------------|-----------------|
Db-----9-8-7--7--7----|---------------|-----------------|
Ab-2---7-7-7--7--8-8-7|7-6-3-3-3-3-3-3|-----------------|
Eb-0---------------9-8|5-4-1-1-1-1-1-1|555555444444 <---|PM

Verse (All Palm Mute)

Riff B

Eb-----------------------------------------|
Bb-----------------------------------------|
Gb-----------------------------------------|
Db-----------------------------------------|
Ab-----------------------------------------|
Eb-1111112111111411111121111114111111000000

Then

Riff C

Eb-----------------------------------------|
Bb-----------------------------------------|
Gb-----------------------------------------|
Db-----------------------------------------|
Ab-6666667666666966666676666669666666444444
Eb-----------------------------------------

Eb-----------------------------------------|
Bb-----------------------------------------|
Gb-----------------------------------------|
Db-----------------------------------------|
Ab-3333334333333633333343333336333333111111
Eb-----------------------------------------

Eb-------------------------------------------|
Bb-------------------------------------------|
Gb-------------------------------------------|
Db-------------------------------------------|
Ab-0000001000000300000010000003000000--------|
Eb------------------------------------333333-|

Eb-----------------------------------------|
Bb-----------------------------------------|
Gb-----------------------------------------|
Db-----------------------------------------|
Ab-----------------------------------------|
Eb-2222223222222522222232222225222222111111

Chorus

Guitar #1
                      1st Tail End x 3 2nd Tail End x 1
Eb--------------------|---------------|-----------------|
Bb--------------------|---------------|-----------------|
Gb-----------10-10----|---------------|-----------------|
Db-----9-8-7--7--7----|---------------|-----------------|
Ab-2---7-7-7--7--8-8-7|7-6-3-3-3-3-3-3|-----------------|
Eb-0---------------9-8|5-4-1-1-1-1-1-1|555555444444 <---|PM

Guitar #2 (No palm mute)

Riff D

Eb--------------------------------------------------------|
Bb--------------------------------------------------------|
Gb-----------------------------101010101010---------------|
Db--------999999-888888-777777----------------------------|
Ab-777777-----------------------------------888888--------|
Eb-------------------------------------------------888888-|

Eb-----------------------------|
Bb-----------------------------|
Gb-----------------------------|
Db-----------------------------|
Ab-----------------------------|
Eb-777777-555555-444444-111111-|

They end the song on a slide but I couldn't figure out where. This is my first tab :) 
Hope you all like it.

Order of Riffs

Riff A x 4
Riff B x 8
Riff C x 1
Riff B x 4
Riff C x 1
Riff B x 2
Riff A and D x 4
Riff B x 8
Riff C x 3 under solo
Riff B x 8 under solo
Riff A and D x 2
Tap to rate this tab
 
# A B C D E F G H I J K L M N O P Q R S T U V W X Y Z