Song name
# A B C D E F G H I J K L M N O P Q R S T U V W X Y Z

Deicide - Black Night tab

Deicide - Black Night (Deep Purple cover)
From the album 'The Stench of Redemption' (Earache Records [2006])
Words/Music: Deep Purple (Arrangement by Deicide)

Transcribed by: John Nixon (abacinate_fmf@att.net)

Tuning: Down 1/2 Steps (Eb, Ab, Db, Gb, Bb, eb)

Guitar 1 - Left/Ralph Santiola; Guitar 2 - Right/Jack Owen

Key:
. = palm-mute
. (in stave) = staccato

Notes:
This is the cover of Deep Purple's 'Black Night'.  I just wanna get that out
there before anyone mistakes this for what the new Deicide sounds like.  This
is a pretty loose transcription.  If any details are missed it's because this
is a cover and the band probably didn't take the recording too seriously.

I suggest using my powertab over this txt version.
=-=-=-=-=-=-=-=-=-=-=-=-=-=-=-=-=-=-=-=-=-=-=-=-=-=-=-=-=-=-=-=-=-=-=-=-=-=-=-=-

Intro Riff x 1
|------------------|------------------|
|------------------|------------------|
|------------------|------------------|
|-2222222200000000-|------------------|
|------------------|-22222222---------|
|------------------|---------33333333-|

Riff A x 2
|------------------|------------------|--------------|--------------|
|------------------|------------------|--------------|--------------|
|------------------|------------------|---.----------|--------------|
|-----55-----------|-----55---7---5---|-7-9----------|---.----------|
|-7777--7755557755-|-7777--77---7---7-|-5-7----------|-5-2----------|
|------------------|------------------|--------------|-3-0----------|

Riff B x 1
|Gtr. 1
|------------------x6|------------------|------------------|
|--------------------|------------------|------------------|
|--------------------|------------------|------------------|
|--------------------|-2222-------------|-444422--2222-----|
|-991010-------------|-----552255552200-|-------55----5522-|
|-------000000000000-|------------------|------------------|
|       ............
|Gtr. 2
|--------------------|------------------|------------------|
|--------------------|------------------|------------------|
|--------------------|------------------|------------------|
|--------------------|-2222-------------|-444422--2222-----|
|-557-7--------------|-----552255552200-|-------55----5522-|
|-------000000000000-|------------------|------------------|
        ............

Riff C x 1
|------------------|------------------|------------------|------------------|
|------------------|------------------|------------------|------------------|
|------------------|------------------|------------------|------------------|
|------------------|------------------|------------------|------------------|
|------------------|------------------|------------------|------------------|
|-5555555555557755-|-3333333333333333-|-0000000000000000-|-0000000000000000-|
  ................   ................   ................   ................
|------------------|------------------|------------------|------------------|
|------------------|------------------|------------------|------------------|
|------------------|------------------|------------------|------------------|
|------------------|------------------|-4----------------|-4----------------|
|------------------|------------------|-2----------------|-2----------------|
|-5555555555557755-|-3333333333333333-|------------------|------------------|
  ................   ................

Riff A x 2
Riff B x 1
Riff C x 1

Solo Rhythym I - Play Riff B only instead of playing the first bar
                 six (6) times, play the first bar twenty-four (24)
                 times.

Solo Rhythym II x 12
|------------------|
|------------------|
|------------------|
|------------------|
|------------------|
|-2-55555555555555-|
    ..............

Riff A x 2
Riff B x 1
Riff C x 1
Solo Rhythym I x 1

Outro x 1
|------------------|------------------|------------------|
|------------------|------------------|------------------|
|------------------|------------------|------------------|
|------------------|------------------|-.----------------|
|------------------|------------------|-2----------------|
|-5555555555557755-|-3333333333333333-|-0----------------|
  ................   ................

END
Tap to rate this tab
# A B C D E F G H I J K L M N O P Q R S T U V W X Y Z