Song name
# A B C D E F G H I J K L M N O P Q R S T U V W X Y Z

Deicide - Pentecostal tab

#----------------------------------PLEASE NOTE---------------------------------#
#This file is the author's own work and represents their interpretation of the #
#song. You may only use this file for private study, scholarship, or research. #
#------------------------------------------------------------------------------#

                                 THE PENTACOSTAL
                             As recorded by Deicide
                   (From the 2004 Album SCARS OF THE CRUCIFIX)



Once again, I suggest you download the powertab version of the tab
as this ASCII tab is only for those without powertab and want this
tab.

 Intro
  Fast Death Metal Q=225
 3/4                          5/4
  Gtrs I, II
                   PM----|             PM----|         PM------------|
   S S S S S S S S S S S S     S S S S S S S S S S S S S S S S S S S S
|--------------------------||------------------------------------------|
|--------------------------||o-----------------------------------------|
|-10-9-7-6-----------------||------------------------------------------|
|----------9-8-6-5---------||--6-6-6-6---------7-7-7-7-----------------|
|------------------8-7-5-4-||o---------5-5-5-5---------5-5-5-5-5-5-5-5-|
|--------------------------||------------------------------------------|


 7/4
  S S S S S S S S S S S S S S S S S S S S S S S S S S S S
|---------------------------------------------------------||
|---------------------------------------------------------||
|-6-6-6-6---------7-7-7-7---------8-8-8-8---------6-6-6-6-||
|---------5-5-5-5---------5-5-5-5---------5-5-5-5---------||
|---------------------------------------------------------||
|---------------------------------------------------------||


 3/4
                   PM----|
   S S S S S S S S S S S S   5x
|----------------------------||
|---------------------------o||
|-10-9-7-6-------------------||
|----------9-8-6-5-----------||
|------------------8-7-5-4--o||
|----------------------------||


   Verse
    S S S S S S S S S S S S
||--------------------------|
||o-------------------------|
||--------------------------|
||--6-6-6-6-----------------|
||o---------5-5-5-5-5-5-5-5-|
||--------------------------|


  S S S S S S S S S S S S   S S S S S S S S S S S S
|-------------------------|-------------------------|
|-------------------------|-------------------------|
|-7-7-7-7-7-7-7-7---------|---------7-7-7-7-8-8-8-8-|
|-----------------6-6-6-6-|-------------------------|
|-------------------------|-5-5-5-5-----------------|
|-------------------------|-------------------------|


                            2/4
                             |---6:8---|
  S S S S S S S S S S S S    S S S S S S
|-------------------------||-------------||
|-------------------------||-------------||
|-------------------------||-7-7-7-7-7-7-||
|-6-6-6-6-----------------||-------------||
|---------5-5-5-5-5-5-5-5-||-------------||
|-------------------------||-------------||


 6/4
                                 ~~~
  S S S S Q  S S S S Q  S S S S  Q     3x
|--------------------------------------||
|-------------------------------------o||
|---------7----------8----------[6]----||
|-5-5-5-5----5-5-5-5----5-5-5-5--------||
|-------------------------------------o||
|--------------------------------------||


   Bridge
   3/4                                  4/4
    PM--------|       PM  PM----|        PM  PM----|
    E E S S S S E E   e E S S S S E E    e E S S S S E E E E   5x
||------------------|-----------------||-----------------------||
||o-----------------|-----------------||----------------------o||
||------------------|-----------------||-----------------------||
||------------------|-----------------||-----------------5s4---||
||o-------------4s3-|-2-----------4s3-||-2-----------4s3-3s2--o||
||--0---0-0-0-0-2s1-|-0---0-0-0-0-2s1-||-0---0-0-0-0-2s1-------||


   Chorus A
   3/4                                4/4
       PM----|          PM----|           PM----|
    Q  S S S S E E   Q  S S S S E E    Q  S S S S E E E E   3x
||-----------------|----------------||----------------------||
||o----------------|----------------||---------------------o||
||-----------------|----------------||----------------------||
||-----------------|----------------||----------------5s4---||
||o-2----------4s3-|-2----------4s3-||-2----------4s3-3s2--o||
||--0--0-0-0-0-2s1-|-0--0-0-0-0-2s1-||-0--0-0-0-0-2s1-------||


   Chorus B
   3/4
       PM----|          PM----|          PM----|
    Q  S S S S E E   Q  S S S S E E   Q  S S S S Q    Q  Q  Q
||-----------------|----------------|---------------|----------|
||o----------------|----------------|---------------|----------|
||-----------------|----------------|------------5--|----------|
||-----------------|----------------|---------------|-4--------|
||o-2----------4s3-|-2----------4s3-|-2-------------|----3-----|
||--0--0-0-0-0-2s1-|-0--0-0-0-0-2s1-|-0--0-0-0-0----|-------2--|


     PM----|          PM----|          PM----|
  Q  S S S S E E   Q  S S S S E E   Q  S S S S Q    Q  Q  Q      H.
|----------------|----------------|---------------|-----------||-------|
|----------------|----------------|------------7--|----------o||-------|
|----------------|----------------|---------------|-5---------||-------|
|----------------|----------------|---------------|----4------||-------|
|-2----------4s3-|-2----------4s3-|-2-------------|-------3--o||-------|
|-0--0-0-0-0-2s1-|-0--0-0-0-0-2s1-|-0--0-0-0-0----|-----------||-------|


Intro (DO NOT play the short 3/4 bar which starts it)
Verse
Bridge
Chorus A
Chorus B (instead of 3/4 bar rest after, this time its 2/4)   



 Pre-solo Fill
 3/4
  S S S S  S  S  S  S  S  S  S  S    S  S  S  S  S  S  S  S  S  S  S  S
|---------------------------------|-------------------------------------|
|---------------------------------|-------------------------------------|
|---------------------------------|-------------------------------------|
|-9-9-9-9-10-10-10-10-13-13-13-13-|-14-14-14-14-13-13-13-13-10-10-10-10-|
|-7-7-7-7--8--8--8--8-11-11-11-11-|-12-12-12-12-11-11-11-11--8--8--8--8-|
|---------------------------------|-------------------------------------|


   Solo Rythym
       PM----|          PM----|             PM----|           PM----|
    Q  S S S S E E   Q  S S S S E E   Q  Q  S S S S   E  E Q  S S S S
||-----------------|----------------|---------------|------------------|
||o----------------|----------------|---------------|------------------|
||-----------------|----------------|---------------|------------------|
||--9--------------|----------------|---------------|-9s10-9-----------|
||o-7----------6s7-|-6----------5s6-|-5--2----------|-7s=8-7-----------|
||-----0-0-0-0-4s5-|-4--0-0-0-0-3s4-|-3--0--0-0-0-0-|---------0-0-0-0--|


 5/4
  E  E  E  E  E  E  E  E  E  E  4x
|-------------------------------||
|------------------------------o||
|-------------------------------||
|-9s10-10s13-13s14-14s13-13s10--||
|-7s=8--8s11-11s12-12s11-11s=8-o||
|-------------------------------||


 Outro
 3/4
     PM----|          PM----|          PM  PM----|       PM  PM----|
  Q  S S S S E E   Q  S S S S E E   Q  E E S S S S   E E e E S S S S
|----------------|----------------|----------------|------------------|
|----------------|----------------|----------------|------------------|
|----------------|----------------|----------------|------------------|
|-9--------------|----------------|----------------|------------------|
|-7----------6s7-|-6----------5s6-|-5--------------|-4s3-2------------|
|----0-0-0-0-4s5-|-4--0-0-0-0-3s4-|-3--0---0-0-0-0-|-2s1-0---0-0-0-0--|


      PM  PM----|              PM
  E E e E S S S S   Q  Q  Q    E Q.   Q
|-----------------|----------|-----------*|
|-----------------|-7--------|-----------*|
|-----------------|----5-----|-----------*|
|-----------------|-------4--|-----------*|
|-4s3-2-----------|----------|-2---------*|
|-2s1-0---0-0-0-0-|----------|-0---------*|

END
Tap to rate this tab
 
# A B C D E F G H I J K L M N O P Q R S T U V W X Y Z