Song name
# A B C D E F G H I J K L M N O P Q R S T U V W X Y Z

Deicide - Let It Be Done tab

Band: Deicide
Album: In Torment, In Hell
Song: Let It Be Done


 
Code:
Suffixes for bend:
fb - full bend       hb - half bend
qb - quarter bend    t - tap bend
r - release bend

Suffixes for harmonic:
^ - pinched harmonic      n  natural harmonic

Suffixes for mute:
.  palm mute            x  staccato mute
, - light palm mute      ; - heavy palm mute

Other:
/ - slide up to            \ - slide down to       
h - hammer on              p - pull off
" - tremolo note           <> - Trill
* - see comment

Tuning D G C F A D

Riff 1 (0:01) play 4 times
|------------------------------------------------------------------|
|---------6666----------------------------6666---------------------|
|-------------66667777------------------------66667777-------------|
|-----7777------------77776666--------7777-------------------------|
|-5555------------------------88885555-----------------------------|
|-----------------------------------------------------555544441111-|
                                                      ............

Fill 1 (0:21)
|-----------|
|-----------|
|-----------|
|-----------|
|-7--6--3---|
|-5--4--1---|
  .  .  .

Riff 2 (0:22) play 6 times
|--------------------------------------------------------|
|--------------------------------------------------------|
|--------------------------------------------------------|
|-----------3---2---5-----10\9-----------3-----5-----4\3-|
|-----3-----1---0---3-----8-\7-----------1-----3-----2\1-|
|-0-0-1-0-0---0---0---0-0------0-0-2-0-0---0-0---0-0-----|
  . .   . .   .   .   . .      . . . . .   . .   . .

Riff 3a (0:44) play twice
|----------------------------------------------------------|
|-------------9<10>----------------------------------------|
|-------------------9<10>----------------------------------|
|-------------------------9<10>-------------6<7>-----------|
|------------------------------------------------7<8>------|
|-0-0-0-0-0-0-------------------0-0-0-0-0-0-----------7<8>-|
  . . . . . .                   . . . . . .


Riff 3b (0:51) play 8 times
|-----------------------|
|-----------------------|
|-----------------------|
|-----------------------|
|-------------5<6>-7<8>-|
|-0-0-0-0-0-0-----------|
  . . . . . .

Riff 1 x 1 (1:05)
Fill 1 x 1 (1:24)
Riff 2 x 1 (1:25)
Riff 3a x 1 (1:47)
Riff 3b x 1 (1:55)
Riff 1 x 1 (2:08)
Fill 1 x 1 (2:27)
Riff 2 x 1 (2:28)
Riff 3a x 1 (2:51)
Riff 3b x 1 (2:58)
Riff 1 x 1 (3:11)
Fill 1 x 1 (3:30)
End
Tap to rate this tab
# A B C D E F G H I J K L M N O P Q R S T U V W X Y Z