Song name
# A B C D E F G H I J K L M N O P Q R S T U V W X Y Z

Deicide - Forever Hate You tab

Band: Deicide
Album: Insineratehymn
Song: Forever Hate You



Code:
. - palm mute           / - slide up to
\ - slide down to       x  Staccato
h - hammer on           p - pull off
, - slight palm mute    () - ghost note, sustained note
" - tremolo note        <> - Trill
L  left channel only   R  right channel only
* - see comment

Suffixes for bend
f - full bend       h - half bend
q - quarter bend    t - tap bend
^ - Hold bend       r - release bend
~ - vibrato bend

Suffixes for harmonic
ph - pinched harmonic   n  natural/artificial harmonic

Tuning D G C F A D

Riff 1 (0:00) play twice
                  [x3]                        [x3]
|---------------------|----|---------------------|-----------------|
|---------------------|----|---------------------|-----------------|
|---------------------|----|---------------------|-----------------|
|---------------------|-8--|---------------------|--------------8--|
|--------------10p8p7-|-6--|--------------10p8p7-|-222222222222-6--|
|-000000000000--------|----|-000000000000--------|-----------------|
  ............               ............          ............

Riff 2 (0:20) play twice
                  [x3]                      [x3]
|--------------------|----|--------------------|-----------------|-----------|
|--------------------|----|--------------------|-----------------|-----------|
|--------------------|----|--------------------|-----------------|-----------|
|--------------------|-8--|--------------------|--------------8--|-4-4-4-4-4-|
|-------------10p8p7-|-6--|-------------10p8p7-|-222222222222-6--|-2-2-2-2-2-|
|-0-0-0-0-0-0--------|----|-0-0-0-0-0-0--------|-----------------|-----------|
  . . . . . .               . . . . . .          ............      . . . . .

------|
------|
------|
-4-8--|
-2-6--|
------|
 .

Solo begins at (0:41)

Riff 3 (0:41) play 6 times
|-------------------------------------|
|-------------------------------------|
|-------------------------------------|
|-------------------------------------|
|-2--2--2--2--2--2--2--2--2--2--2--2--|
|-0--0--0--0--0--0--0--0--0--0--0--0--|
  .  .  .  .  .  .  .  .  .  .  .  .

Riff 4 (1:02) play twice
I
|-----------------------------------------------------------------------|
|-----------------------------------------------------------------------|
|----------------------------------------------------------------13--\--|
|----------------------------6--8--------------------------------13--\--|
|-4--3--0--7--8--0--9--8--5--4--6--0--4--3--0--7--8--0--9--8--5--11--\--|
|-2--1--0--5--6--0--7--6--5--------0--2--1--0--5--6--0--7--6--5---------|
  .  .  .  .  .  .  .  .  .  .  .  .  .  .  .  .  .  .  .  .  .

II
|--------------------------------------------------------------------|
|--------------------------------------------------------------------|
|----------------------------------------------------------------6---|
|----------------------------6--8--------------------------------6---|
|-4--3--0--7--8--0--9--8--5--4--6--0--4--3--0--7--8--0--9--8--5--4---|
|-2--1--0--5--6--0--7--6--5--------0--2--1--0--5--6--0--7--6--5------|
  .  .  .  .  .  .  .  .  .  .  .  .  .  .  .  .  .  .  .  .  .  x

Riff 1 x 1 (1:32)
Riff 2 x 1 (1:52)
Solo begins at (2:14)
Riff 3 x 1 (2:14)
Riff 4 x 1 (2:36)
End
Tap to rate this tab
 
# A B C D E F G H I J K L M N O P Q R S T U V W X Y Z