Song name
# A B C D E F G H I J K L M N O P Q R S T U V W X Y Z

Deicide - Bible Basher tab

Band: Deicide
Album: Insineratehymn
Song: Bible Basher



Code:
. - palm mute           / - slide up to
\ - slide down to       x  Staccato
h - hammer on           p - pull off
, - slight palm mute    () - ghost note, sustained note
" - tremolo note        <> - Trill
L  left channel only   R  right channel only
* - see comment

Suffixes for bend
f - full bend       h - half bend
q - quarter bend    t - tap bend
^ - Hold bend       r - release bend
~ - vibrato bend

Suffixes for harmonic
ph - pinched harmonic   n  natural/artificial harmonic

Tuning D G C F A D

Intro (0:00)
|------------------------------------------------------------------|
|------------------------------------------------------------------|
|-44444444444444445555------------44444444444444445555-------------|
|---------------------44445555------------------------44445555-----| gtr 1
|-----------------------------3333----------------------------3333-|
|------------------------------------------------------------------|

|------------------------------------------------------------------|
|------------------------------------------------------------------|
|------------------------------------------------------------------|
|---------------------------------22222222222222223333-------------| gtr 2
|-----------------------------------------------------22223333-----|
|-------------------------------------------------------------1111-|

Riff 1 (0:05) play 4 times
|-----------------------------------|
|-----------------------------------|
|-44444444444444445555--------------|
|---------------------44445555------| gtr 1
|-----------------------------3333--|
|-----------------------------------|

|-----------------------------------|
|-----------------------------------|
|-----------------------------------|
|-22222222222222223333--------------| gtr 2
|---------------------22223333------|
|-----------------------------1111--|

Riff 2 (0:15) play 5 times
|---------------------------------------------|
|---------------------------------------------|
|---------------------------------------------|
|-2---0---1---2---3---5---2---0---------------|
|-2---0---1---2---3---5---2---0---5---4---3---|
|---0---0---0---0---0---0---0---0-3-0-2-0-1-0-|
    .   .   .   .   .   .   .   . . . . . . .

Riff 3 (0:36) play 6 times
|---------------------------------|
|---------------------------------|
|---------------------------------|
|---------------------------------|
|-2h3p2---2---1---0-----0h1---0---|
|-------3---3---3---1-1-----2---2-|
        .   .   .   . .     .   .

Riff 4 (0:53)
|---------------------------------------------------------------------------|
|---------------------------------------------------------------------------|
|---------------------------------------------------------------------------|
|---------------------------------------------------3-6--------2-5--------5-|
|---2---3-6----2---2-5----2---3-6----2---5-8----2----------2----------2-----|
|-3---2------3---2------3---2------3---2------3---2------3---2------3---2---|
  . . .      . . .      . . .      . . .      . . .      . . .      . . .

---------------|
---------------|
---------------|
-8--------4-7--| gtr 1
------2--------|
----3---2------|
    . . .
|---------------------------------------------------------------------------|
|---------------------------------------------------------------------------|
|---------------------------------------------------------------------------|
|---------------------------------------------------3-6--------2-5--------5-|
|-3-2---3-6--3-2---2-5--3-2---3-6--3-2---5-8--3-2--------3-2--------3-2-----|
|-----2----------2----------2----------2----------2----------2----------2---|
  . . .      . . .      . . .      . . .      . . .      . . .      . . .

---------------|
---------------|
---------------|
-8--------4-7--| gtr 2
----3-2--------|
--------2------|
    . . .

Intro x 1 (1:02)
Riff 1 x 1 (1:08)
Riff 2 x 1 (1:17)

Riff 5 (1:38) play 3 times
|-----------------------------------------------------------------|
|-----------------------------------------------------------------|
|-----------------------------------------------------------------|
|---------------------------------2-------------------------------|
|-2h3p2---2---1---0-----0h1---0-----3---3-2---1---0-----0h1---2---|
|-------3---3---3---1-1-----2---2-----5-----3---2---1-1-----2---2-|
        .   .   .   . .     .   .     .     .   .   . .     .   .

Riff 4 x 1 (1:56)
Intro x 1 (2:05)
Riff 1 x 1 (2:10)

End (2:18)
|-----------------------------|
|-----------------------------|
|-44444444444444445-----------|
|--------------------4--5-----| gtr 1
|--------------------------3--|
|-----------------------------|
                  .  .  .  .
|-----------------------------|
|-----------------------------|
|-----------------------------|
|-22222222222222223-----------| gtr 2
|--------------------2--3-----|
|--------------------------1--|
                  .  .  .  .
End.
Tap to rate this tab
# A B C D E F G H I J K L M N O P Q R S T U V W X Y Z