Song name
# A B C D E F G H I J K L M N O P Q R S T U V W X Y Z

Deicide - Enchanted Nightmare tab

.  - palm mute           /  - slide up to
\  - slide down to       ~  - vibrato
h  - hammer on           b  - Bend
p  - pull off            Suffixes for bend
t  - tap                 f  - full bend    h - half bend
ph - pinched harmonic    q  - quarter bend t - tap bend
*  - see comment         ^  - Hold bend    r release bend
x  - Stuccatto           ~  - vibrato bend
,  - slight palm mute    () - ghost note, sustained note
"  - tremolo note        <> - Trill

Tunning: Half Step down
Ef Af Df Gf Bf Ef

Note:Ok, here's what I've come up with.  It should be pretty
accurate, I took time with the solo riff cause it's a little
hard to make out due to the lead going on and such.
None the less, if you hear something different, etc,
please let me know.  Thanks.
Once again, Raise more Hell!..\m/


Intro/Riff#1A. Fast down stroke pickin',etc. Slight P.M.(1X)
|------------------------------------------------------------------|
|------------------------------------------------------------------|
|------------------------------------------------------------------|
|2-2-2-2-2-2-------------2-2-2-2-2-2-------------------------------|
|1-1-1-1-1-1-------------1-1-1-1-1-1-------------"--------"--------|
|------------0-3-0-1-2-3-------------0-3-0-2-3-1-1--------4--------|
 , , , , , , , , , , , , , , , , , , , , , , , , ,        ,

Riff#1B.(1X)
|-----------------------------------------------------------------|
|-----------------------------------------------------------------|
|-----------------------------------------------------------------|
|2-2-2-2-2-2-------------2-2-2-2-2-2------------------------------|
|1-1-1-1-1-1-------------1-1-1-1-1-1-------------3--3--3--3--3--3-|
|------------0-3-0-1-2-3-------------0-3-0-2-3-1-1--1--1--1--1--1-|
 , , , , , , , , , , , , , , , , , , , , , , , , ,  ,  ,  ,  ,  ,

Riff#1B. Continued..
|--------------------||
|--------------------||
|--------------------||
|--------------------||
|6--6--6--6--6--6--2-||
|4--4--4--4--4--4--0-||
 ,  ,  ,  ,  ,  ,  ,

Riff#2.  Fast tremolo pickin. Slight P.M.(2X)
|---------------------------------------------------------------|
|---------------------------------------------------------------|
|---------------------------------------------------------------|
|-----------------------"----"--------"----"--------------------|
|"--------"----"--------0----1--------3----4--------4--"--------|
|0--------2----3---------------------------------------0--------|
 ,        ,    ,        ,    ,        ,    ,           ,

Riff#2. Continued..
|----------------------------------------------||
|----------------------------------------------||
|----------------------------------------------||
|--------------"----"--------"-----------------||
|"----"--------0----1--------3----"------------||
|2----3---------------------------2--------3/2-||
 ,    ,        ,    ,        ,    ,         ,

Transition A.(only play this one time).
|--||
|--||
|--||
|--||
|2-||
|0-||

Riff#3. Fast up/down stroke picking, P.M.(3X)
|----------------------------------------------------------|
|----------------------------------------------------------|
|----------------------------------------------------------|
|9-----------------10-----------------11-------------------|
|7-7-7-7-7-7-7-7-7-8--8-8-8-8-8-8-8-8-9--2-----------------|
|----------------------------------------0-0-0-0-0-0-0-0-0-|
   . . . . . . . .    . . . . . . . .      . . . . . . . .

Riff#3. Continued..
|---------------------||
|---------------------||
|---------------------||
|---------------------||
|3-----------------5--||
|1-1-1-1-1-1-1-1-1-3--||
   . . . . . . . .

Repeat Riff#1A.(1X)

Riff#4. Solo Riff. Faster up/down stroke pickin..(1X)
*note: Open E note is actually a little longer than it looks..
|------------------------------------------------------------------|
|------------------------------------------------------------------|
|----------------------------"---------------------------"----"----|
|-------------"----"----"----6-----------------"----"----4----7----|
|"------------0----5----7---------"------------0----5--------------|
|0--------------------------------0--------------------------------|
 ,            ,    ,              ,            ,    ,
|------------------------------------------------------------------||
|------------------------------------------------------------------||
|-------------"------------------------------------------"----"----||
|-------------7----"----"----------------------"----"----5----7----||
|"-----------------6----4----"----"------------0----5--------------||
|0---------------------------5----0--------------------------------||
 ,                      ,    ,    ,            ,    ,

Repeat Riff#:1B(1X)
Repeat Riff#:2(2X)
Repeat Riff#:3(3X)
Repeat Riff#:1A(1X)
Repeat Riff#:4(Solo Riff)(1X)
Repeat Riff#:1A(1X)
Repeat Riff#:1B(1X)

END
Tap to rate this tab
# A B C D E F G H I J K L M N O P Q R S T U V W X Y Z