Song name
# A B C D E F G H I J K L M N O P Q R S T U V W X Y Z

Deja Voodoo - Beers tab

Help us improve GuitareTab! Take a short survey!
Lead Part for Beers

Its the greatest beer song ever. Plus its a kiwi band who rock!!!
Lead backing (1:42)
e|----------------------------------------------------|
B|----------------------------------------------------|
G|-10^11^10-8------------------------8-----8-10-------|
D|-----------10-8-10-8~~------8-10-8---10-------------|
A|-----------------------8h10-------------------------|
E|----------------------------------------------------|

e|----------------------------------------------------|
B|----------------------------------------------------|
G|10^12^10-8------------------------8------8-10-------|
D|----------10-8-10-8~~------8-10-8---10--------------|
A|----------------------8h10--------------------------|
E|----------------------------------------------------|

e|----------------------------------------------------|
B|----------------------------------------------------|
G|---/14-12~------------------------8----8-10---------|
D|--------- 10-8-10-8~~------8-10-8---10--------------|
A|---------------------8h10---------------------------|
E|----------------------------------------------------|

e|----------------------------------------------------|
B|----------------------------------------------------|
G|\10^11^10-------------------------8------8-10-------|
D|----------10-8-10-8~~------8-10-8---10--------10----|
A|----------------------8h10--------------------------|
E|----------------------------------------------------|

(1:57)

Enjoy!
Related for Beers tab