Song name
# A B C D E F G H I J K L M N O P Q R S T U V W X Y Z

Deja Voodoo - 250 Ffm tab

250 FFM By Deja Voodoo (250 Flat Firemen)


E---------------------------------------------------------|
B---------------------------------------------------------|
G---------------------------------------------------------|
D----7-----5--6--7--5--6--7---------------------TWICE-----|
A----7-----5--6--7--5--6--7----7--5-----------------------|
E----5-----3--4--5--3--4--5----------8--5-----------------|


then


E---------------------------------------------------------|
B---------------------------------------------------------|
G----7-----5--6--7--5--6--7-------------------------------|
D----7-----5--6--7--5--6--7----7--5-------------ONCE------|
A----5-----3--4--5--3--4--5----------8--5-----------------|
E---------------------------------------------------------|


then

E---------------------------------------------------------|
B---------------------------------------------------------|
G---------------------------------------------------------|
D----7-----5--6--7--5--6--7---------------------ONCE------|
A----7-----5--6--7--5--6--7----7--5-----------------------|
E----5-----3--4--5--3--4--5----------8--5-----------------|

then

(palm mute this)

E----------------------------------------------|
B----------------------------------------------|
G----9----10---11---12--------------FOUR TIMES-|
D----9----10---11---12-------------------------|
A----7----8----9----10-------------------------|
E----------------------------------------------|

rinse then repeat. In differant places. Good song.
Tabbed By Jonesy_
that_guitarist_guy@hotmail.com
Tap to rate this tab
 
# A B C D E F G H I J K L M N O P Q R S T U V W X Y Z