Song name
# A B C D E F G H I J K L M N O P Q R S T U V W X Y Z

Deja Voodoo - Cant Do What I Wanna Do tab

Play fast !!! and GGGAAARRRRRRRRR from the schwashbuckler !!!

SONG: Can't Do (what I wanna do)
BAND: Deja Voodoo
GUITAR(S): The General & Matt Heath
TUNING: standard (E)

b = bend
/ = slide up
\ = slide down

E)--7--7--7--7--7----------------------------------------------|
B)---8--8--8--8--8-8-10-10-10-12-13-12-8-10-10-10-10-10-10-----|
G)----9--9--9--9--9--------------------------------------------|
D)-------------------------------------------------------------|
A)-------------------------------------------------------------|
E)-------------------------------------------------------------|

E)--10-10-8-8-8-7-7-7-12-12-13-12------------------------------|
B)--------------------------------13-10-10-10-10-10-13b!!!-----|
G)-------------------------------------------------------------|
D)-------------------------------------------------------------|
A)-------------------------------------------------------------|
E)-------------------------------------------------------------|

E)--12--12--12--12--12--12------------------------------15-17--|
B)----13--13--13--13--13--13-----12-12-13-13-15-15-17-17-------|
G)------14--14--14--14--14--14-14------------------------------|
D)-------------------------------------------------------------|
A)-------------------------------------------------------------|
E)-------------------------------------------------------------|

E)--17\10-10-8-8-8-7-7-7/19-19-19-17-17-20b!!!-----------------|
B)-------------------------------------------------------------|
G)-------------------------------------------------------------|
D)-------------------------------------------------------------|
A)-------------------------------------------------------------|
E)-------------------------------------------------------------|

and i'm off, i got some pilaging to do with me crew, gggrrrr !
Tap to rate this tab
 
# A B C D E F G H I J K L M N O P Q R S T U V W X Y Z