Song name
# A B C D E F G H I J K L M N O P Q R S T U V W X Y Z

Deke Dickerson - Rockin Gypsy tab

-------------------------------------------------------------------------------
	     Rockin' Gypsy - Deke Dickerson (www.dekedickerson.com) (written by Joe Maphis)
-------------------------------------------------------------------------------
Tabbed by:The Shetland
Email:peteybombay@yahoo.com

Tuning:
Standard


This is all from listening to the song a hundred times, i am sure the walkdown riff is 
but it's as close as I could get without Deke telling me...he's very tight lipped...

hit the b min chord a few times

e|---2-----------------------------------------------------------------------|
B|---3-----------------------------------------------------------------------|
G|---4-----------------------------------------------------------------------|
D|---4-----------------------------------------------------------------------|
A|---2-----------------------------------------------------------------------|
E|---------------------------------------------------------------------------|


e|---2-2-3-0------------------------------------------------------------------|
B|-----------3-2-0------------------------------------------------------------|
G|-----------------4-2-0------------0-----2-0---------------------------------|
D|------------------------4-2-0-2-4---4-2-----4-2-0---------------------------|
A|--------------------------------------------------4-------------------------|
E|----------------------------------------------------------~2----------------|

3 times

e|--2--x--2-------------------------------------------------------------------|
B|--3--x--3------2--2---------5--2--------------------------------------------|
G|--4--x--4------3--3---------3--3--------------------------------------------|
D|--4--x--4------4--4---------x--x--------------------------------------------|
A|--2--x--2------4--4---------4--4--------------------------------------------|
E|---------------2--2---------2--2--------------------------------------------|


e|--2--2h3p2p0---------------------------------------------------------------|
B|--------------3p2p0--------------------------------------------------------|
G|---------------------4p2p0-------------------------------------------------|
D|----------------------------4p2p0---0--------------------------------------|
A|---------------------------------------------------------------------------|
E|---------------------------------------------------------------------------|

verse melody

e|---------7-7-----------7---------------------------------------------------|
B|-------------7--8p7-7------------------------------------------------------|
G|---------------------------------------------------------------------------|
D|---------------------------------------------------------------------------|
A|---------------------------6h7-7-------------------------------------------|
E|--/7------------------------------6h7-7-----2h3-3----0(tremolo bar)--------|

e|--------7-7-----------7------11h12-12----6h7-7------2h3-3---0 (tremolo bar)-|
B|------------7--8p7-7--------------------------------------------------------|
G|----------------------------------------------------------------------------|
D|----------------------------------------------------------------------------|
A|----------------------------------------------------------------------------|
E|--/7------------------------------------------------------------------------|

e|-------7-7--------------0--0-0----0--0-0----7--7-7------12-12-12-----------|
B|-----------7-8p7--7-----5--5-5----9--9-9----9--9-9------12-12-12-----------|
G|---------------------------------------------------------------------------|
D|---------------------------------------------------------------------------|
A|---------------------------------------------------------------------------|
E|--/7-----------------------------------------------------------------------|


(this is a tough part)

e|----0---0-0----4p0-0--7p0-0-0--------5------------------2-------------------|
B|----0---0-0------------------------------8--5--------------5--2-------------|
G|----1---1-1------------------------------------6-----------------3----------|
D|--------2-2-----------------------------------------------------------------|
A|--------2-2-----------------------------------------------------------------|
E|-0------0-0---------------------1/5----------------5\2----------------------|


Back to the chords and walkdown again


a little solo/melody line, play 3 times then go to the tough part...

e|----------------------------------------------------------------------------|
B|----------------------------------------------------------------------------|
G|------------------------2-2-2-2--44--2----0-0-0-0-0-0-0-0-0-0-0-------------|
D|--1-1-1-1-1-1-1-1---4-------------------------------------------------------|
A|----------------------------------------------------------------------------|
E|----------------------------------------------------------------------------|


layout for the bass solo and hit the verse again..that's it! this is a tough song to 
out because the original has two

guitars including an octave guitar that does god knows what...this should be close 
though


| /  slide up
| \  slide down
| h  hammer-on
| p  pull-off
| ~  vibrato
| +  harmonic
| x  Mute note
===============================================================================
Tap to rate this tab
# A B C D E F G H I J K L M N O P Q R S T U V W X Y Z