Song name
# A B C D E F G H I J K L M N O P Q R S T U V W X Y Z

Deke Dickerson - Red Headed Woman tab

here:


       "RED HEADED WOMAN" by Deke Dickerson
|----------|---------------------------------------------|
|----------|---------------------------------8-8-7-7-5-5-|
|--5--7--5-|-9-9-7-7-5-5-7-7-5-5-----5-5-7-7-9-9-7-7-5-5-|
|----------|---------------------7-7---------------------|
|----------|---------------------------------------------|
|----------|---------------------------------------------|

|----------|------------|
|----------|------------|
|----------|------------|
|--7--5--7-|------------|
|----------|------------|
|----------|-0--0--0--0-|
 an eager cat is sittin on a hot tin roof
|---------------------|
|---------------------|
|---------------------|
|-----------2~~~~~~~~-|
|-----------0~~~~~~~~-|
|--0--2--4------------|
an eager cat is sittin on a hot tin roof
|---------------------|
|---------------------|
|---------------------|
|-----------2~~~~~~~~-|
|-----------0~~~~~~~~-|
|--0--2--4------------|
an eager cat is lookin for a gal on the loose!
|--------------------|
|--------------------|
|--------------------|
|--------------------|
|--0--------2~~~~~~~-|
|-----4--2--0~~~~~~~-|
i got a whole lotta lovin just uh waitin in the oven!
|---------------------|
|---------------------|
|---------------------|
|-----------2~~~~~~~~-|
|-----------0~~~~~~~~-|
|--0--2--4------------|
when i see that gal i just lose my mind!
|-------------------------------|
|-------------------------------|
|-------------------------------|
|-----------2--4--2--4--2--4--2-|
|-----------0--0--0--0--0--0--0-|
|--0--2--4----------------------|

when i see that gal i just lose my mind
|-------------------------------|
|-------------------------------|
|-------------------------------|
|-----------2--4--2--4--2--4--2-|
|-----------0--0--0--0--0--0--0-|
|--0--2--4----------------------|
just waitin for her to come inside
|-------------------------------|
|-------------------------------|
|-------------------------------|
|-------------------------------|
|--0--------2--4--2--4--2--4--2-|
|-----4--2--0--0--0--0--0--0--0-|
i'd like to hook 'er if i had enough lines!
|---------------------|
|---------------------|
|---------------------|
|-----------2~~~~~~~~-|
|-----------0~~~~~~~~-|
|--0--2--4------------|

well my red headed woman
|-------------------------------|
|-------------------------------|
|-------------------------------|
|-----------2--4--2--4--2--4--2-|
|-----------0--0--0--0--0--0--0-|
|--0--2--4----------------------|

my red headed woman
|-------------------------------|
|-------------------------------|
|-------------------------------|
|-----------2--4--2--4--2--4--2-|
|-----------0--0--0--0--0--0--0-|
|--0--2--4----------------------|
oh my red headed woman
|-------------------------------|
|-------------------------------|
|-------------------------------|
|-------------------------------|
|--0--------2--4--2--4--2--4--2-|
|-----4--2--0--0--0--0--0--0--0-|
well sugar an' spice and uh everything nice!
|---------------------|
|---------------------|
|---------------------|
|-----------2~~~~~~~~-|
|-----------0~~~~~~~~-|
|--0--2--4------------|

on the last verses the guitar goes:
|-------------------|------------|
|---------5--8b-5---|------------|
|----5h7----------5-|------------|
|--7----------------|------------|
|-------------------|-0-----0----|
|-------------------|----0-----0-|x2
and it ends wit:
|-8b--5--------------------------|-5-|
|-------8b--5--------------------|-5-|
|--------------7b--5-------------|-6-|
|---------------------5-7-5~~~~~-|-7-|
|--------------------------------|---|
|--------------------------------|---|

and there ye go! songs in the key of so have fun! hope this helps!
-Bert
Tap to rate this tab
 
# A B C D E F G H I J K L M N O P Q R S T U V W X Y Z