Del Amitri - Driving With The Breaks On tab

Standard Tuning:  EADGBe

Capo III

Cmaj7 :X32000
C     :X32010
Asus2 :X02200
Am    :X02210
F     :133211
G     :320033

Intro:
  C
e :0---0-0-0---0-0-:0---0-0-0---0-0-:0---0-0-0---0-0-:0---0-0-0---0-0-:
B :0h1-1-1-1p0-0-0-:0h1-1-1-1p0-0-0-:0h1-1-1-1p0-0-0-:0h1-1-1-1p0-0-0-:
G :0---0-0-0---0-0-:0---0-0-0---0-0-:0---0-0-0---0-0-:0---0-0-0---0-0-:
D :0h2-2-2-2p0-0-0-:0h2-2-2-2p0-0-0-:0h2-2-2-2p0-0-0-:0h2-2-2-2p0-0-0-:
A :3---3-3-3---3-3-:3---3-3-3---3-3-:3---3-3-3---3-3-:3---3-3-3---3-3-:
E :----------------:----------------:----------------:----------------:

Verse 1 & 2:
   C
e :0---0-0-0---0-0-:0---0-0-0---0-0-:0---0-0-0---0-0-:0---0-0-0---0-0-:
B :0h1-1-1-1p0-0-0-:0h1-1-1-1p0-0-0-:0h1-1-1-1p0-0-0-:0h1-1-1-1p0-0-0-:
G :0---0-0-0---0-0-:0---0-0-0---0-0-:0---0-0-0---0-0-:0---0-0-0---0-0-:
D :0h2-2-2-2p0-0-0-:0h2-2-2-2p0-0-0-:0h2-2-2-2p0-0-0-:0h2-2-2-2p0-0-0-:
A :3---3-3-3---3-3-:3---3-3-3---3-3-:3---3-3-3---3-3-:3---3-3-3---3-3-:
E :----------------:----------------:----------------:----------------:

   Am                               C
e :0---0-0-0---0-0-:0---0-0-0---0-0-:0---0-0-0---0-0-:0---0-0-0---0-0-:
B :0h1-1-1-1p0-0-0-:0h1-1-1-1p0-0-0-:0h1-1-1-1p0-0-0-:0h1-1-1-1p0-0-0-:
G :2---2-2-2---2-2-:2---2-2-2---2-2-:0---0-0-0---0-0-:0---0-0-0---0-0-:
D :2---2-2-2---2-2-:2---2-2-2---2-2-:0h2-2-2-2p0-0-0-:0h2-2-2-2p0-0-0-:
A :0---0-0-0---0-0-:0---0-0-0---0-0-:3---3-3-3---3-3-:3---3-3-3---3-3-:
E :----------------:----------------:----------------:----------------:

   C
e :0---0-0-0---0-0-:0---0-0-0---0-0-:0---0-0-0---0-0-:0---0-0-0---0-0-:
B :0h1-1-1-1p0-0-0-:0h1-1-1-1p0-0-0-:0h1-1-1-1p0-0-0-:0h1-1-1-1p0-0-0-:
G :0---0-0-0---0-0-:0---0-0-0---0-0-:0---0-0-0---0-0-:0---0-0-0---0-0-:
D :0h2-2-2-2p0-0-0-:0h2-2-2-2p0-0-0-:0h2-2-2-2p0-0-0-:0h2-2-2-2p0-0-0-:
A :3---3-3-3---3-3-:3---3-3-3---3-3-:3---3-3-3---3-3-:3---3-3-3---3-3-:
E :----------------:----------------:----------------:----------------:

   Am                               C
e :0---0-0-0---0-0-:0---0-0-0---0-0-:0---0-0-0---0-0-:0---0-0-0---0-0-:
B :0h1-1-1-1p0-0-0-:0h1-1-1-1p0-0-0-:0h1-1-1-1p0-0-0-:0h1-1-1-1p0-0-0-:
G :2---2-2-2---2-2-:2---2-2-2---2-2-:0---0-0-0---0-0-:0---0-0-0---0-0-:
D :2---2-2-2---2-2-:2---2-2-2---2-2-:0h2-2-2-2p0-0-0-:0h2-2-2-2p0-0-0-:
A :0---0-0-0---0-0-:0---0-0-0---0-0-:3---3-3-3---3-3-:3---3-3-3---3-3-:
E :----------------:----------------:----------------:----------------:

   F                                G
e :0---0-0-0---0-0-:0---0-0-0---0-0-:3---3-3-3---3-3-:3---3-3-3---3-3-:
B :0h1-1-1-1p0-0-0-:0h1-1-1-1p0-0-0-:0h1-1-1-1p0-0-0-:0h1-1-1-1p0-0-0-:
G :0h2-2-2-2p0-0-0-:0h2-2-2-2p0-0-0-:0---0-0-0---0-0-:0---0-0-0---0-0-:
D :3---3-3-3---3-3-:3---3-3-3---3-3-:0---0-0-0---0-0-:0---0-0-0---0-0-:
A :3---3-3-3---3-3-:3---3-3-3---3-3-:2---2-2-2---2-2-:2---2-2-2---2-2-:
E :----------------:----------------:3---3-3-3---3-3-:3---3-3-3---3-3-:

   Am                               C
e :0---0-0-0---0-0-:0---0-0-0---0-0-:0---0-0-0---0-0-:0---0-0-0---0-0-:
B :0h1-1-1-1p0-0-0-:0h1-1-1-1p0-0-0-:0h1-1-1-1p0-0-0-:0h1-1-1-1p0-0-0-:
G :2---2-2-2---2-2-:2---2-2-2---2-2-:0---0-0-0---0-0-:0---0-0-0---0-0-:
D :2---2-2-2---2-2-:2---2-2-2---2-2-:0h2-2-2-2p0-0-0-:0h2-2-2-2p0-0-0-:
A :0---0-0-0---0-0-:0---0-0-0---0-0-:3---3-3-3---3-3-:3---3-3-3---3-3-:
E :----------------:----------------:----------------:----------------:

   F                                G
e :0---0-0-0---0-0-:0---0-0-0---0-0-:3---3-3-3---3-3-:3---3-3-3---3-3-:
B :0h1-1-1-1p0-0-0-:0h1-1-1-1p0-0-0-:0h1-1-1-1p0-0-0-:0h1-1-1-1p0-0-0-:
G :0h2-2-2-2p0-0-0-:0h2-2-2-2p0-0-0-:0---0-0-0---0-0-:0---0-0-0---0-0-:
D :3---3-3-3---3-3-:3---3-3-3---3-3-:0---0-0-0---0-0-:0---0-0-0---0-0-:
A :3---3-3-3---3-3-:3---3-3-3---3-3-:2---2-2-2---2-2-:2---2-2-2---2-2-:
E :----------------:----------------:3---3-3-3---3-3-:3---3-3-3---3-3-:

   Am                               C
e :0---0-0-0---0-0-:0---0-0-0---0-0-:0---0-0-0---0-0-:0---0-0-0---0-0-:
B :0h1-1-1-1p0-0-0-:0h1-1-1-1p0-0-0-:0h1-1-1-1p0-0-0-:0h1-1-1-1p0-0-0-:
G :2---2-2-2---2-2-:2---2-2-2---2-2-:0---0-0-0---0-0-:0---0-0-0---0-0-:
D :2---2-2-2---2-2-:2---2-2-2---2-2-:0h2-2-2-2p0-0-0-:0h2-2-2-2p0-0-0-:
A :0---0-0-0---0-0-:0---0-0-0---0-0-:3---3-3-3---3-3-:3---3-3-3---3-3-:
E :----------------:----------------:----------------:----------------:

Chorus:
   C
e :0---0-0-0---0-0-:0---0-0-0---0-0-:0---0-0-0---0-0-:0---0-0-0---0-0-:
B :0h1-1-1-1p0-0-0-:0h1-1-1-1p0-0-0-:0h1-1-1-1p0-0-0-:0h1-1-1-1p0-0-0-:
G :0---0-0-0---0-0-:0---0-0-0---0-0-:0---0-0-0---0-0-:0---0-0-0---0-0-:
D :0h2-2-2-2p0-0-0-:0h2-2-2-2p0-0-0-:0h2-2-2-2p0-0-0-:0h2-2-2-2p0-0-0-:
A :3---3-3-3---3-3-:3---3-3-3---3-3-:3---3-3-3---3-3-:3---3-3-3---3-3-:
E :----------------:----------------:----------------:----------------:

  Am
e :0---0-0-0---0-0-:0---0-0-0---0-0-:0---0-0-0---0-0-:0---0-0-0---0-0-:
B :0h1-1-1-1p0-0-0-:0h1-1-1-1p0-0-0-:0h1-1-1-1p0-0-0-:0h1-1-1-1p0-0-0-:
G :2---2-2-2---2-2-:2---2-2-2---2-2-:2---2-2-2---2-2-:2---2-2-2---2-2-:
D :2---2-2-2---2-2-:2---2-2-2---2-2-:2---2-2-2---2-2-:2---2-2-2---2-2-:
A :0---0-0-0---0-0-:0---0-0-0---0-0-:0---0-0-0---0-0-:0---0-0-0---0-0-:
E :----------------:----------------:----------------:----------------:

  F                                 G
e :0---0-0-0---0-0-:0---0-0-0---0-0-:3---3-3-3---3-3-:3---3-3-3---3-3-:
B :0h1-1-1-1p0-0-0-:0h1-1-1-1p0-0-0-:0h1-1-1-1p0-0-0-:0h1-1-1-1p0-0-0-:
G :0h2-2-2-2p0-0-0-:0h2-2-2-2p0-0-0-:0---0-0-0---0-0-:0---0-0-0---0-0-:
D :3---3-3-3---3-3-:3---3-3-3---3-3-:0---0-0-0---0-0-:0---0-0-0---0-0-:
A :3---3-3-3---3-3-:3---3-3-3---3-3-:2---2-2-2---2-2-:2---2-2-2---2-2-:
E :----------------:----------------:3---3-3-3---3-3-:3---3-3-3---3-3-:

   Am               F               G
e :0---0-0-0---0-0-:0---0-0-0---0-0-:3---3-3-3---3-3-:3---3-3-3---3-3-:
B :0h1-1-1-1p0-0-0-:0h1-1-1-1p0-0-0-:0h1-1-1-1p0-0-0-:0h1-1-1-1p0-0-0-:
G :2---2-2-2---2-2-:0h2-2-2-2p0-0-0-:0---0-0-0---0-0-:0---0-0-0---0-0-:
D :2---2-2-2---2-2-:3---3-3-3---3-3-:0---0-0-0---0-0-:0---0-0-0---0-0-:
A :0---0-0-0---0---:3---3-3-3---3-3-:2---2-2-2---2-2-:2---2-2-2---2-2-:
E :----------------:----------------:3---3-3-3---3-3-:3---3-3-3---3-3-:

Bridge:
   C                Am              F
e :0-------0---0-0-:0-------0---0-0-:0-------0-0-0-0-:0-0-0-0-0-0-0---:
B :1-------1---1-1-:1-------1---1-1-:1-------1-1-1-1-:1-1-1-1-1-1-1---:
G :0-------0---0-0-:2-------2---2-2-:2-------2-2-2-2-:2-2-2-2-2-2-2---:
D :2-------2---2-2-:2-------2---2-2-:3-------3-3-3-3-:3-3-3-3-3-3-3---:
A :3-------3---3-3-:0-------0---0-0-:3-------3-3-3-3-:3-3-3-3-3-3-3---:
E :----------------:----------------:----------------:----------------:

   Am               F               C
e :0-------0---0-0-:0-------0---0-0-:0-------0-0-0-0-:0-0-0-0-0-0-0---:
B :1-------1---1-1-:1-------1---1-1-:1-------1-1-1-1-:1-1-1-1-1-1-1---:
G :2-------2---2-2-:2-------2---2-2-:0-------0-0-0-0-:0-0-0-0-0-0-0---:
D :2-------2---2-2-:3-------3---3-3-:2-------2-2-2-2-:2-2-2-2-2-2-2---:
A :0-------0---0-0-:3-------3---3-3-:3-------3-3-3-3-:3-3-3-3-3-3-3---:
E :----------------:----------------:----------------:----------------:

   Am               F               G
e :0-------0---0-0-:0-------0---0-0-:3-------3-3-3-3-:3-3-3-3-3-3-3---:
B :1-------1---1-1-:1-------1---1-1-:0-------0-0-0-0-:0-0-0-0-0-0-0---:
G :2-------2---2-2-:2-------2---2-2-:0-------0-0-0-0-:0-0-0-0-0-0-0---:
D :2-------2---2-2-:3-------3---3-3-:0-------0-0-0-0-:0-0-0-0-0-0-0---:
A :0-------0---0-0-:3-------3---3-3-:2-------2-2-2-2-:2-2-2-2-2-2-2---:
E :----------------:----------------:3-------3-3-3-3-:3-3-3-3-3-3-3---:
   
   Am               F               G
e :0-------0---0-0-:0-------0---0-0-:3-------3-3-3-3-:3-3-3-3-3-3-3---:
B :1-------1---1-1-:1-------1---1-1-:0-------0-0-0-0-:0-0-0-0-0-0-0---:
G :2-------2---2-2-:2-------2---2-2-:0-------0-0-0-0-:0-0-0-0-0-0-0---:
D :2-------2---2-2-:3-------3---3-3-:0-------0-0-0-0-:0-0-0-0-0-0-0---:
A :0-------0---0-0-:3-------3---3-3-:2-------2-2-2-2-:2-2-2-2-2-2-2---:
E :----------------:----------------:3-------3-3-3-3-:3-3-3-3-3-3-3---:

e :3-3-3-3-3-3-3---:3-3-3-3-3-3-3---:3-3-3-3-3-3-3---:3-3-3-3-3-3-3---:
B :1-1-1-1-1-1-1---:1-1-1-1-1-1-1---:0-0-0-0-0-0-0---:0-0-0-0-0-0-0---:
G :0-0-0-0-0-0-0---:0-0-0-0-0-0-0---:0-0-0-0-0-0-0---:0-0-0-0-0-0-0---:
D :0-0-0-0-0-0-0---:0-0-0-0-0-0-0---:0-0-0-0-0-0-0---:0-0-0-0-0-0-0---:
A :2-2-2-2-2-2-2---:2-2-2-2-2-2-2---:2-2-2-2-2-2-2---:2-2-2-2-2-2-2---:
E :3-3-3-3-3-3-3---:3-3-3-3-3-3-3---:3-3-3-3-3-3-3---:3-3-3-3-3-3-3---:

Last Chorus:
   C
e :0---0-0-0---0-0-:0---0-0-0---0-0-:0---0-0-0---0-0-:0---0-0-0---0-0-:
B :0h1-1-1-1p0-0-0-:0h1-1-1-1p0-0-0-:0h1-1-1-1p0-0-0-:0h1-1-1-1p0-0-0-:
G :0---0-0-0---0-0-:0---0-0-0---0-0-:0---0-0-0---0-0-:0---0-0-0---0-0-:
D :0h2-2-2-2p0-0-0-:0h2-2-2-2p0-0-0-:0h2-2-2-2p0-0-0-:0h2-2-2-2p0-0-0-:
A :3---3-3-3---3-3-:3---3-3-3---3-3-:3---3-3-3---3-3-:3---3-3-3---3-3-:
E :----------------:----------------:----------------:----------------:
   Am
e :0---0-0-0---0-0-:0---0-0-0---0-0-:0---0-0-0---0-0-:0---0-0-0---0-0-:
B :0h1-1-1-1p0-0-0-:0h1-1-1-1p0-0-0-:0h1-1-1-1p0-0-0-:0h1-1-1-1p0-0-0-:
G :2---2-2-2---2-2-:2---2-2-2---2-2-:2---2-2-2---2-2-:2---2-2-2---2-2-:
D :2---2-2-2---2-2-:2---2-2-2---2-2-:2---2-2-2---2-2-:2---2-2-2---2-2-:
A :0---0-0-0---0-0-:0---0-0-0---0-0-:0---0-0-0---0-0-:0---0-0-0---0-0-:
E :----------------:----------------:----------------:----------------:

   F                                G
e :0---0-0-0---0-0-:0---0-0-0---0-0-:3---3-3-3---3-3-:3---3-3-3---3-3-:
B :0h1-1-1-1p0-0-0-:0h1-1-1-1p0-0-0-:0h1-1-1-1p0-0-0-:0h1-1-1-1p0-0-0-:
G :0h2-2-2-2p0-0-0-:0h2-2-2-2p0-0-0-:0---0-0-0---0-0-:0---0-0-0---0-0-:
D :3---3-3-3---3-3-:3---3-3-3---3-3-:0---0-0-0---0-0-:0---0-0-0---0-0-:
A :3---3-3-3---3-3-:3---3-3-3---3-3-:2---2-2-2---2-2-:2---2-2-2---2-2-:
E :----------------:----------------:3---3-3-3---3-3-:3---3-3-3---3-3-:

   Am               F               G
e :0---0-0-0---0-0-:0---0-0-0---0-0-:3---3-3-3---3-3-:3---3-3-3---3-3-:
B :0h1-1-1-1p0-0-0-:0h1-1-1-1p0-0-0-:0h1-1-1-1p0-0-0-:0h1-1-1-1p0-0-0-:
G :2---2-2-2---2-2-:0h2-2-2-2p0-0-0-:0---0-0-0---0-0-:0---0-0-0---0-0-:
D :2---2-2-2---2-2-:3---3-3-3---3-3-:0---0-0-0---0-0-:0---0-0-0---0-0-:
A :0---0-0-0---0---:3---3-3-3---3-3-:2---2-2-2---2-2-:2---2-2-2---2-2-:
E :----------------:----------------:3---3-3-3---3-3-:3---3-3-3---3-3-:

   Am               F               G
e :0---0-0-0---0-0-:0---0-0-0---0-0-:3---3-3-3---3-3-:3---3-3-3---3-3-:
B :0h1-1-1-1p0-0-0-:0h1-1-1-1p0-0-0-:0h1-1-1-1p0-0-0-:0h1-1-1-1p0-0-0-:
G :2---2-2-2---2-2-:0h2-2-2-2p0-0-0-:0---0-0-0---0-0-:0---0-0-0---0-0-:
D :2---2-2-2---2-2-:3---3-3-3---3-3-:0---0-0-0---0-0-:0---0-0-0---0-0-:
A :0---0-0-0---0---:3---3-3-3---3-3-:2---2-2-2---2-2-:2---2-2-2---2-2-:
E :----------------:----------------:3---3-3-3---3-3-:3---3-3-3---3-3-:

   Am               F               C
e :0---0-0-0---0-0-:0---0-0-0---0-0-:0---0-0-0---0-0-:0---------------:
B :0h1-1-1-1p0-0-0-:0h1-1-1-1p0-0-0-:0h1-1-1-1p0-0-0-:0h1-------------:
G :2---2-2-2---2-2-:0h2-2-2-2p0-0-0-:0---0-0-0---0-0-:0---------------:
D :2---2-2-2---2-2-:3---3-3-3---3-3-:0h2-2-2-2p0-0-0-:0h2-------------:
A :0---0-0-0---0---:3---3-3-3---3-3-:3---3-3-3---3-3-:3---------------:
E :----------------:----------------:----------------:----------------:

Verse 1:
C (4x)
Driving through the long night / Trying to figure who's rigth
         Am (2x)                  C (2x)
and who's wrong / Now the kid has gone.

C (4x)
I sit belted up tight. / She sucks on a match light,
      Am (2x)         C (2x)
glowing bronze, steering on.

F (2x)                                   G (2x)
And I might be more a man / if I stopped this in it's tracks
              Am (2x)         C (2x)
And said come on / let's go home.
     F (2x)                  G (2x)
But she's got the wheel /  And I've got nothing except
  Am (2x)       F (2x)
what I have on.

Chorus:
                              C (4x)
When you're driving with the brakes on.
				 Am (4x)
When you're swimming with you're boots on.
			    F (2x)        G (2x)
It's hard to say you love someone
			        Am (2x) F (2x)
And it's hard to say you don't.

Verse 2:
Trying to keep the mood right, / trying to steer the conversation 
from / The thing we've done.
She shuts up the ashtray / and I say it's a long way back now hon
And she just yawns. 
And we might get lost someplace / So desolate that no one where we're from 
would ever come
But she's got the wheel and I've got to deal 
from now on.

Chorus:
When you're driving with the brakes on.
When you're swimming with you're boots on.
It's hard to say you love someone
And it's hard to say you don't.

Bridge:
		    C (1x)       Am (1x)  F (2x)
But unless the moon falls tonight,        
                 Am (1x) F (1x) C (2x)
unless continents collide.
		Am (1x) F (1x) G (2x)
Nothing's gonna make me          
              Am (1x) F (1x) G (2x)
break from her side.

Last Verse:
			     C (4x)
When you're driving with the brakes on.
				 Am (4x)
When you're swimming with you're boots on.
			   F (2x)        G (2x)
It's hard to say you love someone
			 Am (1x)  F (1x) G (2x)
And it's hard to say you don't.
			   F (2x)       G (2x)
It's hard to say you love someone
			 Am (1x)   F (1x) C (2x)
And it's hard to say you don't.
Tap to rate this tab
 
# A B C D E F G H I J K L M N O P Q R S T U V W X Y Z