Song name
# A B C D E F G H I J K L M N O P Q R S T U V W X Y Z

Del Amitri - Roll To Me tab

-------------------------------------------------------------------------------
Roll To Me- Del Amitri
-------------------------------------------------------------------------------
Tabbed by:Nick V.
E-mail:BlindTerry333@gmail.com
Tuning:

Figure #1 (intro/outro and end of each chorus)

e|---2----4-4--7-7-7--------------------------------------------------------|
B|-2---2--2-2--------9--7---------------------------------------------------|
G|------------------------8--6----------------------------------------------|
D|--------------------------------------------------------------------------|
A|--------------------------------------------------------------------------|
E|--------------------------------------------------------------------------|

or

e|---2----4-4--7-7-7----4-2-----------------------------------------------|
B|-2---2--2-2---------------4-2-------------------------------------------|
G|------------------------------------------------------------------------|
D|------------------------------------------------------------------------|
A|------------------------------------------------------------------------|
E|------------------------------------------------------------------------|

F#               B 
Look around your world, pretty baby.
F#                   B              C#
Is it everything you hoped it would be?
F#                    B   
 The wrong guy, the wrong situation
F#         B        F#
 The right time to roll to me.

F#             B
Look into your heart, pretty baby
      F#               B        C#
Is it aching with some nameless need? 
         F#                      B
Is there something wrong and you can't put your finger on it?
F#     B          F#
 Right then, roll to me

      C#m                Bm          F#         G#m
And I don't think I have ever seen a soul so in despair
    F#             B
So, if you want to talk the night through
G#m               C#
Guess who will be there?

    F#             B
So, don't try to deny it, pretty baby, 
            F#                   B      C#
You've been down so long you can hardly see
         F#                   B
When the engine's stalled, it won't stop runnin'
          F#      B           F#              
 It's the right time to roll to me

   F#               B
So look around your world, pretty baby
      F#             B              C#  
Is it everything you hoped it would be?
F#                    B
The wrong guy, the wrong situation
F#         B               F#
The right time to roll to me
           B               F#
The right time to roll to me.
           B               F#
The right time to roll to me


Repeat B and F# until fade


e|---2----4-4--7-7-7--------------------------------------------------------|
B|-2---2--2-2--------9--7---------------------------------------------------|
G|------------------------8--6----------------------------------------------|
D|--------------------------------------------------------------------------|
A|--------------------------------------------------------------------------|
E|--------------------------------------------------------------------------|
Tap to rate this tab
# A B C D E F G H I J K L M N O P Q R S T U V W X Y Z