Song name
# A B C D E F G H I J K L M N O P Q R S T U V W X Y Z

Delain - Amenity tab

----------------------------------------------------------------------------
                         Amenity - Delain
----------------------------------------------------------------------------

hey.. i hope you understand it =P

Tabbed by: Devy

e|--------------------------------------------------------------------|
B|--------------------------------------------------------------------|
G|--------------------------------------------------------------------|
D|-------------------7777-----------7777/1010/99----------------7777--|
A|----/77777777/5555-5555--77777777-5555/-8-8/77--77777777/5555-5555--|
E|----/55555555/3333-------55555555---------------55555555/3333-------|

e|---------------|
B|---------------|
G|---5---3-------|
D|---5---3---5---|
A|---3---2---5---|
E|-----------3---|

e|---------------------------------------------------------------------|
B|---------------------------------------------------------------------|
G|---------------------------------------------------------------------|
D|-------------------7777-----------7777/1010/99----------------7777---|
A|----77777777/5555-5555--77777777-5555/-8-8/77--77777777/5555-5555----|
E|----55555555/3333-------55555555---------------55555555/3333---------|

e|---------------|
B|---------------|
G|---5---3-------|
D|---5---3---5---|
A|---3---2---5---|
E|-----------3---|

e|----------------------------------|
B|----------------------------------|
G|----------------------------------|
D|---999-----999-----999-----15-----|
A|---999-----777-----999-----15-----|
E|---777-----777-----777-----13-----|
Tap to rate this tab
# A B C D E F G H I J K L M N O P Q R S T U V W X Y Z