Song name
# A B C D E F G H I J K L M N O P Q R S T U V W X Y Z

Delain - Are You Done With Me tab

Chorus 1:
d|-------------------------------------------------------------------------------------------------|
A|-------------------------------------------------------------------------------------------------|
F|-------------------------------------------------------------------------------------------------|
C|-7-7-7-7-7-7-7-7-3-3-3-3-3-3-3-3-5-5-5-5-5-5-5-5-3-3-3-3-3-3-3-3-1-1-1-1-1-1-1-1-0-0-0-0-1-1-1-1-|
G|-7-7-7-7-7-7-7-7-3-3-3-3-3-3-3-3-5-5-5-5-5-5-5-5-3-3-3-3-3-3-3-3-1-1-1-1-1-1-1-1-0-0-0-0-1-1-1-1-|
C|-7-7-7-7-7-7-7-7-3-3-3-3-3-3-3-3-5-5-5-5-5-5-5-5-3-3-3-3-3-3-3-3-1-1-1-1-1-1-1-1-0-0-0-0-1-1-1-1-|

d|-----------|
A|-----------|
F|-----------|
C|-3-5-1----5|
G|-3-5-1----5|
C|-3-5-1----5| 

do this legato and slide into the 5th.

Chorus 2:

d|-------------------------------------------------------------------------------------------------|
A|-------------------------------------------------------------------------------------------------|
F|-------------------------------------------------------------------------------------------------|
C|-7-7-7-7-7-7-7-7-3-3-3-3-3-3-3-3-5-5-5-5-5-5-5-5-3-3-3-3-3-3-3-3-1-1-1-1-1-1-1-1-0-0-0-0-1-1-1-1-|
G|-7-7-7-7-7-7-7-7-3-3-3-3-3-3-3-3-5-5-5-5-5-5-5-5-3-3-3-3-3-3-3-3-1-1-1-1-1-1-1-1-0-0-0-0-1-1-1-1-|
C|-7-7-7-7-7-7-7-7-3-3-3-3-3-3-3-3-5-5-5-5-5-5-5-5-3-3-3-3-3-3-3-3-1-1-1-1-1-1-1-1-0-0-0-0-1-1-1-1-|

d|------|
A|------|
F|------|
C|-3-5-1|
G|-3-5-1|
C|-3-5-1|

do this legato.

Bridge:

d|---------------------------------------------------------------------|
A|---------------------------------------------------------------------|
F|---------------------------------------------------------------------|
C|-1-1-1-1-1-1-1-1-3-3-3-3-3-3-3-3-5-5-5-5-5-5-5-5-7-7-8-8-10-10-12-12-|
G|-1-1-1-1-1-1-1-1-3-3-3-3-3-3-3-3-5-5-5-5-5-5-5-5-7-7-8-8-10-10-12-12-|
C|-1-1-1-1-1-1-1-1-3-3-3-3-3-3-3-3-5-5-5-5-5-5-5-5-7-7-8-8-10-10-12-12-| 

d|-------------------------------------------------|
A|-------------------------------------------------|
F|-------------------------------------------------|
C|-1-1-1-1-1-1-1-1-3-3-3-3-3-3-3-3-5-5-5-5-5-5-5-5-|
G|-1-1-1-1-1-1-1-1-3-3-3-3-3-3-3-3-5-5-5-5-5-5-5-5-|
C|-1-1-1-1-1-1-1-1-3-3-3-3-3-3-3-3-5-5-5-5-5-5-5-5-| 

Then Chorus2 again, but this is played two times:

d|-------|
A|-------|
F|-------|
C|-3-5-1-|
G|-3-5-1-| 
C|-3-5-1-|

do this legato.
Tap to rate this tab
 
# A B C D E F G H I J K L M N O P Q R S T U V W X Y Z