Song name
# A B C D E F G H I J K L M N O P Q R S T U V W X Y Z

Delay - Say Ave tab

http://www.midwestrock.org/delay/updates.html

Delay - Say Ave.


Say Avenue    Say Avenue
e------------------------------|
G------------------------------|
B-7--------------7-------------|
D-7-7--7-7-7-7---7-7--7-7-7-7--|
A-5-7--7-7-7-7---5-7--7-7-7-7--|
E---5--5-5-5-5-----5--5-5-5-5--|


I always wanted to ride down the street with you
and now I want to share something honest with you
e-----------------------------------|
G-----------------------------------|
B------------------7-7-7-7-7-7-7-7--| x2
D--4-4-4-4--7-4-7--7-7-7-7-7-7-7-7--|
A--4-4-4-4--7-4-7--5-5-5-5-5-5-5-5--|
E--2-2-2-2--5-2-5-------------------|


But now I'm riding alone
e------------------------------------|
G------------------------------------|
B-4-4-4-4----------------------------| x2
D-4-4-4-4--4--2--0--5-5-5-5-5-5-5-5--|
A-2-2-2-2-----------5-5-5-5-5-5-5-5--|
E-------------------3-3-3-3-3-3-3-3--|


Say Avenue. Say Avenue.


There's still so much left for us to do.
There's so much more I want to share with you.


But now you've turned your back on me
and now you turned your back on me.


e------------------|
G------------------|
B------------------| x4
D------------------|
A--7-7-7-7---------|
E--5-5-5-5--2-3-4--|


Betrayed on Say Avenue.
e--------------------|
G--------------------|
B--5--------5--------| x4
D--5-5-5-5--5-3-3-3--|
A--3-5-5-5--3-3-3-3--|
E----3-3-3----1-1-1--|


Say Avenue. Say Avenue.
Tap to rate this tab
# A B C D E F G H I J K L M N O P Q R S T U V W X Y Z