Song name
# A B C D E F G H I J K L M N O P Q R S T U V W X Y Z

Delay - 71n tab

71N

Mom and Dad I'm so sorry. I didn't mean to grow up.
I don't think that I wanted this, I couldn't make it stop
e--------------------------------------------|
G--------------------------------------------|
B--10-10-10-10-10-10-10-10--5-5-5-5-5-5-5-5--|
D--10-10-10-10-10-10-10-10--7-7-7-7-7-7-7-7--|
A--8--8--8--8--8--8--8--8---5-5-5-5-5-5-5-5--|
E--------------------------------------------|


and I know that things will never, never be the same
and I know that it still sounds funny when you call my name.
e--------------------------------------------|
G--------------------------------------------|
B--10-10-10-10-10-10-10-10--5-5-5-5-5-5-5-5--|
D--10-10-10-10-10-10-10-10--7-7-7-7-7-7-7-7--|
A--8--8--8--8--8--8--8--8---5-5-5-5-5-5-5-5--|
E--------------------------------------------|
 pm****************************************


And the house is so quiet. You make jokes and pretend like you like it,
but I know the pain of silence. Don't think I didn't find it,
e-------------------------------------------------|
G-------------------------------------------------|
B--10--10-10----10--10-10----7--7-7----10--10-10--|
D--10--10-10----10--10-10----7--7-7----10--10-10--|
A--8---8--8-----8---8--8-----5--5-5----8---8--8---|
E-------------------------------------------------|


cause I did and I will and I can't hide from it anymore.
e------------------------------------------|
G------------------------------------------|
B------------------------------------------| x2
D--8-8-8-8-8-8-8--10-10-10-10-10-10-10-10--|
A--8-8-8-8-8-8-8--10-10-10-10-10-10-10-10--|
E--6-6-6-6-6-6-6--8--8--8--8--8--8--8--8---|


e-----------------------------------|
G-----------------------------------|
B-----------------------------------|
D--7-7-8-8-7-7-8-8-7-7-8-8-7-7-8-8--|
A-----------------------------------|
E-----------------------------------|


We all know what's happening. Don't say a word.
We try to act like we always did, but you know it doesn't work.
e--------------------------------------------|
G--------------------------------------------|
B---------------------------5-5-5-5-5-5-5-5--|
D--10-10-10-10-10-10-10-10--7-7-7-7-7-7-7-7--|
A--10-10-10-10-10-10-10-10--7-7-7-7-7-7-7-7--|
E--8--8--8--8--8--8--8--8---5-5-5-5-5-5-5-5--|


I don't know if it has to be like this, but it's too late 'cause it is.
I think that it's working 'cause I've got confidence like I never had.
e--------------------------------------------|
G--------------------------------------------|
B---------------------------5-5-5-5-5-5-5-5--|
D--10-10-10-10-10-10-10-10--7-7-7-7-7-7-7-7--|
A--10-10-10-10-10-10-10-10--7-7-7-7-7-7-7-7--|
E--8--8--8--8--8--8--8--8---5-5-5-5-5-5-5-5--|
 pm****************************************


It seems we're so busy. I can tell that you miss me.
I promise things will get better. I'll have more time for family,


but right now I hope you understand
I'm doing my best just to grow up I guess.


e---------------------------|
G---------------------------|
B--10-10-10-10-10-10-10-10--|
D--10-10-10-10-10-10-10-10--|
A--8--8--8--8--8--8--8--8---|
E---------------------------|


So I was running through the house
I said that I had to get out.
e------------------------------------|
G------------------------------------|
B------------------------------------| x2
D--12-12-12-12--11-11-11-11-9-9-9-9--|
A------------------------------------|
E------------------------------------|


Don't you know that I didn't mean that.
e-----------------------------------|
G-----------------------------------|
B-----------------------------------|
D--7-7-7-7-7-7-7-7-7-7-7-7-7-7-7-7--|
A--7-7-7-7-7-7-7-7-7-7-7-7-7-7-7-7--|
E--5-5-5-5-5-5-5-5-5-5-5-5-5-5-5-5--|


Now that I am out,
I only have one wish

that I could go back home and


run through the yard and jump to the stone that's always there
and right from the stone I jump to the second stair.
e-------------------------------------------------------------------|
G-------------------------------------------------------------------|
B--7-7-7-7-7-7-7-7-7-7-7-7-7-7-7-7----------------------------------| x2
D--7-7-7-7-7-7-7-7-7-7-7-7-7-7-7-7-5-5-5-5-5-5-5-5-5-5-5-5-5-5-5-5--|
A--5-5-5-5-5-5-5-5-5-5-5-5-5-5-5-5-5-5-5-5-5-5-5-5-5-5-5-5-5-5-5-5--|
E----------------------------------3-3-3-3-3-3-3-3-5-5-5-5-5-5-5-5--|

I throw the door open and it hits the house. I'm sorry that I'm always so loud.
I know you're gonna wait for me on the couch.
e-------------------------------------------------------------------|
G-------------------------------------------------------------------|
B--7-7-7-7-7-7-7-7-7-7-7-7-7-7-7-7----------------------------------| x2
D--7-7-7-7-7-7-7-7-7-7-7-7-7-7-7-7-5-5-5-5-5-5-5-5-5-5-5-5-5-5-5-5--|
A--5-5-5-5-5-5-5-5-5-5-5-5-5-5-5-5-5-5-5-5-5-5-5-5-5-5-5-5-5-5-5-5--|
E----------------------------------3-3-3-3-3-3-3-3-5-5-5-5-5-5-5-5--|


Wait for me, every time.
I'm late again, but I know that you're gonna wait again.
e-------------------------------------------------------------------|
G-------------------------------------------------------------------|
B--7-7-7-7-7-7-7-7-7-7-7-7-7-7-7-7----------------------------------|
D--7-7-7-7-7-7-7-7-7-7-7-7-7-7-7-7-8-8-8-8-8-8-8-8-7-7-7-7-7-7-7-7--|
A--5-5-5-5-5-5-5-5-5-5-5-5-5-5-5-5-8-8-8-8-8-8-8-8-7-7-7-7-7-7-7-7--|
E----------------------------------6-6-6-6-6-6-6-6-5-5-5-5-5-5-5-5--|


e---
G---
B-7-
D-7-
A-5-
E---
Tap to rate this tab
# A B C D E F G H I J K L M N O P Q R S T U V W X Y Z