Song name
# A B C D E F G H I J K L M N O P Q R S T U V W X Y Z

Delay - Photo Album tab

Photo Album

e----------------------------------------------|
G-----7-------------------7--------------------|
B--7----7-0------------7----7-0----------------|
D--7---------5--4-2-0--7---------5--7-7-5-4-2--|
A--5---------5---------5---------5-------------|
E------------3-------------------3-------------|


Making faces, ruining pictures because we are young. We're sticking out our
e-----------------------------------|
G-----------------------------------|
B--7-7-7-7-7-7-7-7------------------|
D--7-7-7-7-7-7-7-7-5-5-5-5-4-4-2-2--|
A--5-5-5-5-5-5-5-5-5-5-5-5-4-4-2-2--|
E------------------3-3-3-3-2-2-0-0--|


tongues and you do it too. You're so much fun, going on eighty won-
derful you are to me and in this picture I can see
everything I want to be like you, like you.


Photo album in my head.
e---------------    ----------------------|
G---------------    ----------------------|
B----------7-4-- x3 ----------------------|
D--5-5-5-5-7-4--    --5-5-5-5--7-7-5-4-2--|
A--5-5-5-5-5-2--    --5-5-5-5-------------|
E--3-3-3-3------    --3-3-3-3-------------|


You're faking a smile in this picture, you were so cold. You would have had me
sold if I had not been there. You could cut the tension in the air.
I spilled red pop down your shirt. The other one I ruined with dirt.
I didn't mean for us to get hurt, but I smile when I see this picture.


I don't take many pictures, I keep them in my mind.
They keep me up at night when I got them on rewind.
e------------------------------------------------------|
G------------------------------------------------------|
B--4-4---------7-7-----------4-4----------7-7----------|
D--4-4-7-7-7-7-7-7-5-5-5-5---4-4-7-7-7-7--7-7-5-5-5-5--|
A--2-2-7-7-7-7-5-5-5-5-5-5---2-2-7-7-7-7--5-5-5-5-5-5--|
E------5-5-5-5-----3-3-3-3-------5-5-5-5------3-3-3-3--|


e---
G---
B-7-
D-7-
A-5-
E---


I've got a picture of you and you're singing out loud. Your eyes are closed, standing from
the crowd and you, your face is red. Feet are pounding, sweat pouring from your
head and we didn't care who even saw us or who was there. So we
danced all night and we've got pictures to prove it.


Photo album in my head.


Head, head, in my head.
e--------------------------------------    ------------------|
G--------------------------------------    ------------------|
B-------------------------------------- x4 ------------------|
D--------------------------------------    ------------------|
A--4-4-4-4-4-4-4-4-4h5-4-4-4-4h5-4-4-4-    -4h5-7-7-7-7-7----|
E--------------------------------------    ---------------5--|
Tap to rate this tab
 
# A B C D E F G H I J K L M N O P Q R S T U V W X Y Z