Song name
# A B C D E F G H I J K L M N O P Q R S T U V W X Y Z

Delay - Watertowers tab

Watertowers


*start with a palm-muted F5 chord*


All my friends are having trouble with love
and so they're climbing water towers waiting for someone to shove
e----------------------------------------|
G----------------------------------------|
B-------5-5--7-7--5-5--3-3-3-3--5-5-5-5--|
D--3-3--5-5--7-7--5-5--3-3-3-3--5-5-5-5--|
A--3-3--3-3--5-5--3-3--1-1-1-1--3-3-3-3--|
E--1-1-----------------------------------|

them off into something better.
e--------------|
G--------------|
B--------------|
D--7-7-7-7--3--|
A--7-7-7-7--3--|
E--5-5-5-5--1--|


All my friends are having trouble with love
so they're climbing water towers trying to get above


and hide, because I think that they just might wanna die.
You know I know that they just might want to die. Or they want to
e---------------------------------------------------------|
G---------------------------------------------------------|
B----------3-3--5-5------------3-3--5-5-------------------|
D-7-7-7-7--3-3--5-5--3-3-3-3---3-3--5-5--3-3-3-3-3-3-3-3--|
A-7-7-7-7--1-1--3-3--3-3-3-3---1-1--3-3--3-3-3-3-3-3-3-3--|
E-5-5-5-5------------1-1-1-1-------------1-1-1-1-1-1-1-1--|


live again and they want to love again
and honestly without any reservations.
Not lying to you, or lying to me. I don't know if this can ever be
or is this the kind of love that's only in my dreams?
e-------------------------------------|
G-------------------------------------|
B--8-8-8-8-8-8-8-8--------------------|
D--8-8-8-8-8-8-8-8--8-8-8-8--6-6-6-6--|
A--6-6-6-6-6-6-6-6--8-8-8-8--6-6-6-6--|
E-------------------6-6-6-6--4-4-4-4--|


Do you remember when this whole thing started?
I wasn't always so broken hearted.
There weren't so many tears to cry
and you never told me that you wanted to die.
e---------------------------------     -------------------------------|
G---------------------------------     -------------------------------|
B----------------8-8-8-8-8-8-8-8-- x4  --------8-8-8-8-8-8-8----------|
D--5-5-5--6-6-6--8-8-8-8-8-8-8-8--     --6-6-6-8-8-8-8-8-8-8---6-6-6--|
A--5-5-5--6-6-6--6-6-6-6-6-6-6-6--     --6-6-6-6-6-6-6-6-6-6---6-6-6--|
E--3-3-3--4-4-4-------------------     --4-4-4-----------------4-4-4--|


The bathroom floor ain't getting me nowhere
neither is punching walls.
Then from inside came a voice
it said love ain't destiny 'cause love is a choice.
e------------------------------|
G------------------------------|
B----------------8-8-----------|
D--5-5--8-8-8-8--8-8--8-8-8-8--|
A--5-5--8-8-8-8--6-6--8-8-8-8--|
E--3-3--6-6-6-6-------6-6-6-6--|


Love is a choice
e-----------|
G-----------|
B--8-8-8----| x3
D--8-8-8-8--|
A--6-6-6-8--|
E--------6--|
Tap to rate this tab
 
# A B C D E F G H I J K L M N O P Q R S T U V W X Y Z