Song name
# A B C D E F G H I J K L M N O P Q R S T U V W X Y Z

Delay - Hairband tab

Hairband by DELAY


 I wore your hairband around my wrist. Spit out my gum before the
e------------------------------------------------------|
B------------------------------------------------------|
G-333--------------333----------------333--------------|
D-333--------------333----------------333--------------|
A-111--------------111----------------111--------------|
E------------------------------------------------------|

 first time that we kissed.
e--------------------------|
B--------------------------|
G--------------------------|
D-5-5-5-----------3-3-3----|
A-5-5-5-----------3-3-3----|
E-3-3-3-----------1-1-1----|

 You were so selfish. I was surprised. At first I only saw
e------------------------------------------------------|
B------------------------------------------------------|
G-333--------------333----------------333--------------|
D-333--------------333----------------333--------------|
A-111--------------111----------------111--------------|
E------------------------------------------------------|

 adventure in your eyes.
e--------------------------|
B--------------------------|
G--------------------------|
D-5-5-5-----------3-3-3----|
A-5-5-5-----------3-3-3----|
E-3-3-3-----------1-1-1----|

 You were the first girl I ever missed.
e---------------------------------------|
B---------------------------------------|
G---------------------------------------|
D-5-5-5-5--7-7-7-7--8-8-8-8--3-3-3-3----|
A-5-5-5-5--7-7-7-7--8-8-8-8--3-3-3-3----|
E-3-3-3-3--5-5-5-5--6-6-6-6--1-1-1-1----|

 The first girl I ever lost it over.
e------------------------------------------------------------|
B------------------------------------------------------------|
G----------------------7-8-----------------------3-3-3-3-3---|
D-5-5-5-5--7-7-7-7-----7-8-----5-5-5-5--3-3-3-3--3-3-3-3-3---|
A-5-5-5-5--7-7-7-7-----5-6-----5-5-5-5--3-3-3-3--1-1-1-1-1---|
E-3-3-3-3--5-5-5-5-------------3-3-3-3--1-1-1-1--------------|


 You were the first girl to send me letters. I rode to the post office with
e-------------------------------------------------------------|
B-------------------------------------------------------------|
G-------------------------------------------------------------|
D-333-3-3-3-3-3-3-3---333-3-3-3-3-3-3-3---333-3-3-3-3-3-3-3---|
A-333-3-3-3-3-3-3-3---333-3-3-3-3-3-3-3---333-3-3-3-3-3-3-3---|
E-111-1-1-1-1-1-1-1---111-1-1-1-1-1-1-1---111-1-1-1-1-1-1-1---|

 responses tucked under my sweater.
e--------------------------|
B--------------------------|
G--------------------------|
D-5-5-5-----------3-3-3----|
A-5-5-5-----------3-3-3----|
E-3-3-3-----------1-1-1----|

They were so colorful. The colors true. So tell me why I
e-------------------------------------------------------------|
B-------------------------------------------------------------|
G-------------------------------------------------------------|
D-333-3-3-3-3-3-3-3---333-3-3-3-3-3-3-3---333-3-3-3-3-3-3-3---|
A-333-3-3-3-3-3-3-3---333-3-3-3-3-3-3-3---333-3-3-3-3-3-3-3---|
E-111-1-1-1-1-1-1-1---111-1-1-1-1-1-1-1---111-1-1-1-1-1-1-1---|

 never hear from you.
e--------------------------|
B--------------------------|
G--------------------------|
D-5-5-5-----------3-3-3----|
A-5-5-5-----------3-3-3----|
E-3-3-3-----------1-1-1----|

 Cause you ripped up your mailbox and broke your pen.
e---------------------------------------|
B---------------------------------------|
G---------------------------------------|
D-5-5-5-5--7-7-7-7--8-8-8-8--3-3-3-3----|
A-5-5-5-5--7-7-7-7--8-8-8-8--3-3-3-3----|
E-3-3-3-3--5-5-5-5--6-6-6-6--1-1-1-1----|

 Found a new place to settle in.
e------------------------------------------------------------|
B------------------------------------------------------------|
G----------------------7-8-----------------------3-3-3-3-3---|
D-5-5-5-5--7-7-7-7-----7-8-----5-5-5-5--3-3-3-3--3-3-3-3-3---|
A-5-5-5-5--7-7-7-7-----5-6-----5-5-5-5--3-3-3-3--1-1-1-1-1---|
E-3-3-3-3--5-5-5-5-------------3-3-3-3--1-1-1-1--------------|

 This heart of mine is gold. I don't guard it very well.
e--------------------------------------------------------|
B--------------------------------------------------------|
G----------------------8-----------------------------8---|
D-----3---------8------8-------3--------------8------8---|
A-----3---------8------6-------3--------------8------6---|
E-----1---------6--------------1--------------6----------|

 This heart of mine is gold, and it's easily pounded into different shapes.
e----------------------------------------------------------------------|
B----------------------------------------------------------------------|
G----------------------8----------------------8------8-8-8-8-5-5-5-5---|
D-----3---------8------8---------------3------8------8-8-8-8-5-5-5-5---|
A-----3---------8------6---------------3------6------6-6-6-6-3-3-3-3---|
E-----1---------6----------------------1-------------------------------|

You're such a cute girl, can't match your clothes. You made the boys laugh so
e------------------------------------------------------|
B------------------------------------------------------|
G-333--------------333----------------333--------------|
D-333--------------333----------------333--------------|
A-111--------------111----------------111--------------|
E------------------------------------------------------|

 hard that chocolate milk came from their nose.
e--------------------------|
B--------------------------|
G--------------------------|
D-5-5-5-----------3-3-3----|
A-5-5-5-----------3-3-3----|
E-3-3-3-----------1-1-1----|

 You moved here, and it was a surprise. I couldn't help notice your
e-------------------------------------------------------------|
B-------------------------------------------------------------|
G-------------------------------------------------------------|
D-333-3-3-3-3-3-3-3---333-3-3-3-3-3-3-3---333-3-3-3-3-3-3-3---|
A-333-3-3-3-3-3-3-3---333-3-3-3-3-3-3-3---333-3-3-3-3-3-3-3---|
E-111-1-1-1-1-1-1-1---111-1-1-1-1-1-1-1---111-1-1-1-1-1-1-1---|

 blue flannel matches your eyes.
e--------------------------|
B--------------------------|
G--------------------------|
D-5-5-5-----------3-3-3----|
A-5-5-5-----------3-3-3----|
E-3-3-3-----------1-1-1----|

 But I'm scared I'll find something wrong.
e---------------------------------------|
B---------------------------------------|
G---------------------------------------|
D-5-5-5-5--7-7-7-7--8-8-8-8--3-3-3-3----|
A-5-5-5-5--7-7-7-7--8-8-8-8--3-3-3-3----|
E-3-3-3-3--5-5-5-5--6-6-6-6--1-1-1-1----|

Blurry lines become too sharp for me.
e------------------------------------------------------------|
B------------------------------------------------------------|
G----------------------7-8-----------------------3-3-3-3-3---|
D-5-5-5-5--7-7-7-7-----7-8-----5-5-5-5--3-3-3-3--3-3-3-3-3---|
A-5-5-5-5--7-7-7-7-----5-6-----5-5-5-5--3-3-3-3--1-1-1-1-1---|
E-3-3-3-3--5-5-5-5-------------3-3-3-3--1-1-1-1--------------|

This heart of mine is gold. It's one I'm not fit to hold.
e--------------------------------------------------------|
B--------------------------------------------------------|
G----------------------8-----------------------------8---|
D-----3---------8------8----------3-----------8------8---|
A-----3---------8------6----------3-----------8------6---|
E-----1---------6-----------------1-----------6----------|
Tap to rate this tab
 
# A B C D E F G H I J K L M N O P Q R S T U V W X Y Z