Song name
# A B C D E F G H I J K L M N O P Q R S T U V W X Y Z

Delays - This Towns Religion tab

me and my friend worked this song out, we think this is how it goes and it looks
lke it is what greg plays live.

played with fast tempo!!

..::duming intro::..

 
...
e|-----15------14-----12--10---12----------------12----------------12|e
B|-12------12-----12---------------10---10---10------10---10---10----|B
G|-------------------------------------------------------------------|G
D|-------------------------------------------------------------------|D
A|-------------------------------------------------------------------|A
D|-------------------------------------------------------------------|D


e|-----15------14-----12--10---12----17---15----14----12---10----12--|e
B|-12------12-----12-------------------------------------------------|B
G|-------------------------------------------------------------------|G
D|-------------------------------------------------------------------|D
A|-------------------------------------------------------------------|A
D|-------------------------------------------------------------------|D


e|-----15------14-----12--10---12----------------12----------------12|e
B|-12------12-----12---------------10---10---10------10---10---10----|B
G|-------------------------------------------------------------------|G
D|-------------------------------------------------------------------|D
A|-------------------------------------------------------------------|A
D|-------------------------------------------------------------------|D


e|-----15------14-----12--10---12----17---15---14--15-----17*--------|e
B|-12------12-----12-------------------------------------------------|B
G|-------------------------------------------------------------------|G
D|-------------------------------------------------------------------|D
A|-------------------------------------------------------------------|A
D|-------------------------------------------------------------------|D

*slide rest of the way up the frets.

this riff is also played through out the chorus
Tap to rate this tab
# A B C D E F G H I J K L M N O P Q R S T U V W X Y Z