Song name
# A B C D E F G H I J K L M N O P Q R S T U V W X Y Z

Delays - Pieces tab

----------------------------------------------------------------------------
	         Pieces - Delays
----------------------------------------------------------------------------
Tabbed by: acoustic-fish
Tuning: EADGBe (standard)

Iíve tabbed the song for the main guitar only, there are a lot of other
 instruments playing at times, but theyíre mostly just same chords. The
 whole song is just Am-C-G-Dm but with a lot of arpeggios and a few
 variations in rhythm and suchlike. Iíve tabbed the main bits, just listen
 to the song to figure the rest out. Itís all the same chords.


Intro:
    Am             C               G               Dm
 e|---------------|---------------|--------3------|--1------------|
 B|----1-0-1------|---------------|------------3--|----3----------|
 G|-----------2---|---------------|------0-------0|------2--------|
 D|-------------2-|--0-2-3-2-0----|----0----------|0-------2-0----|
 A|-0-------------|3-----------3-2|--2------------|------------3-2|
 E|---------------|---------------|3--------------|---------------|

    Am             C               G               Dm
 e|---------------|---------------|----------3----|--1------------|
 B|----1-0-1------|---------------|------------3--|----3----------|
 G|-----------2---|---------------|------0-------0|------2--------|
 D|-------------2-|--0-2-3-2-0----|----0----------|0-------2-0----|
 A|-0-------------|3-----------3-2|--2------------|------------3-2|
 E|---------------|---------------|3--------------|---------------|


Verse (x2):
    Am             C               G               Dm
 e|-0--0-0-0--0-0-|-0--0-0-0--0-0-|-3--3-3-3--3-3-|--1------------|
 B|-1--1-1-1--1-1-|-1--1-1-1--1-1-|-3--3-3-3--3-3-|----3----------|
 G|-2--2-2-2--2-2-|-0--0-0-0--0-0-|-0--0-0-0--0-0-|------2--------|
 D|-2--2-2-2--2-2-|-2--2-2-2--2-2-|-0--0-0-0--0-0-|0-------2-0----|
 A|-0--0-0-0--0-0-|-3--3-3-3--3-3-|-2--2-2-2--2-2-|------------3-2|
 E|---------------|---------------|-3--3-3-3--3-3-|---------------|

    Am             C               G               Dm
 e|---------------|---------------|----------3----|--1------------|
 B|----1-0-1------|---------------|------------3--|----3----------|
 G|-----------2---|---------------|------0-------0|------2--------|
 D|-------------2-|--0-2-3-2-0----|----0----------|0-------2-0----|
 A|-0-------------|3-----------3-2|--2------------|------------3-2|
 E|---------------|---------------|3--------------|---------------|


Chorus (x4):
    Am             C               G               Dm
 e|-0--0-0-0--0-0-|-0--0-0-0--0-0-|-3--3-3-3--3-3-|-1--1-1-3--1---|
 B|-1--1-1-1--1-1-|-1--1-1-1--1-1-|-3--3-3-3--3-3-|-3--3-3-3--3---|
 G|-2--2-2-2--2-2-|-0--0-0-0--0-0-|-0--0-0-0--0-0-|-2--2-2-2--2---|
 D|-2--2-2-2--2-2-|-2--2-2-2--2-2-|-0--0-0-0--0-0-|-0--0-0-0--0---|
 A|-0--0-0-0--0-0-|-3--3-3-3--3-3-|-2--2-2-2--2-2-|---------------|
 E|---------------|---------------|-3--3-3-3--3-3-|---------------|


| /  slide up
| \  slide down
| h  hammer-on
| p  pull-off
| ~  vibrato
| +  harmonic
| x  Mute note
============================================================================
Tap to rate this tab
 
# A B C D E F G H I J K L M N O P Q R S T U V W X Y Z