Song name
# A B C D E F G H I J K L M N O P Q R S T U V W X Y Z

Delays - Nearer Then Heaven tab

From the album "Faded Seaside Glamour", Tremelo & slight overdrive are used :) enjoy!

Intro/Main Riff:

e|---------------------------------------------------|
B|---------10-9---7----------------------------------|
G|-9---9-7------9---9-6--9---9-7-----------------2-1-|
D|---7---------------------7-----7-6-----0---2-0-----|
A|-----------------------------------0h2---2---------|
E|---------------------------------------------------|

Chorus: repeat 6/7 times (or thereabouts I think)

"ooooh You're near then Heaven..."

     D               A               E        

e|---------3---------------0---------------0------------|
B|*------2---2-----------2---2-----------0---0--------*-|
G|-----3-------3---3---2-------2---2---1-------1---1----|
D|---0-----------0---2-----------2---2-----------2------|
A|*---------------------------------------------------*-|
E|------------------------------------------------------|

Verse chords: (picked in similar style to chorus)

     Bm              A               F#m             E

e|---------2---------------0---------------2---------------0------------|
B|*------3---3-----------2---2-----------2---2-----------0---0--------*-|
G|-----4-------4---4---2-------2---2---2-------2---2---1-------1---1----|
D|---4-----------4---2-----------2---2-----------2---2-----------2------|
A|*-------------------------------------------------------------------*-|
E|----------------------------------------------------------------------|

Chords used:

D   (xx0232)
A   (x02220)
E   (022100)
Bm  (x24432)
F#m (244222)
Tap to rate this tab
 
# A B C D E F G H I J K L M N O P Q R S T U V W X Y Z