Song name
# A B C D E F G H I J K L M N O P Q R S T U V W X Y Z

Delbert Mcclinton - Im Your Weatherman tab

I'm your weatherman by Delbert McClinton

Tabbed by: David
Email: Supersaftsack@googlemail.com

Tuning: EADGBE

Intro/Maintheme:
e|----5-5---5--7----5-5---5-------5-5---5--7------8-/9----7---5----------|
B|----5-5---5--7----5-5---5--7----5-5---5--7------9-/10---7---5----------|
G|----6-6---6--7----6-6---6--7----6-6---6--7-----------------------------|
D|----7-7---7--7----7-7---7--7----7-7---7--7-----------------------------|
A|-----------------------------------------------------------------------|
E|-----------------------------------------------------------------------|

after Intro play:
e|---8-/9----7--------------------------------------------------------------|
B|---9-/10---7--------------------------------------------------------------|
G|---------------------------0--2------0--2-------0--2-----0----------------|
D|-------------------------2---------2----------2------------4p-2-4p-2------|
A|----------------------0---------0----------0-------------------------3-h4-|
E|--------------------------------------------------------------------------|

Chorus:

A D A A D A A D A A D A  E D E A D

Refrain:

play the main theme again


| /  slide up
| \  slide down
| h  hammer-on
| p  pull-off
| ~  vibrato
| +  harmonic
| x  Mute note
===============================================================================
Tap to rate this tab
# A B C D E F G H I J K L M N O P Q R S T U V W X Y Z