Song name
# A B C D E F G H I J K L M N O P Q R S T U V W X Y Z

Delhi Belly - Bhaag Dk Bose chords

Highlighted       Show chord diagrams
STRUMMING PATTERN:-
D DU UDU DU (verse)
D D DU DU DU U D (chorus)
Bm-x24432
F#-244322

[VERSE - 1]
(Bm)Daddy mujhse (D)bola, tu (A)galati hai (Bm)meri
(Bm)Tujhpe (D)Zindagani, (A)guilty hai (Bm)meri
(D)Saabun ki (Em)shaqal mein,
(G)beta tu toh nikla keval (F#)jhaag
Jhaag jhaag(F#)bhaag


[PRE-CHORUS]
Bhaag (Bm)bhaag..(D)..bhaag (A)bhaag..(Bm)
Bhaag (Bm)bhagh..(D)..bhaag (A)bhaag..(Bm)


[VERSE - 2]
(Bm)Toh by god (D)lag gayi, (A)kya se kya (Bm)hua
(Bm)Dekha toh (D)katora, (A)jhaanka toh (Bm)kuaa
(D)Piddi jaissa (Em)chuhaa
(G)dum pakda toh nikla kala (F#)naag
Naag naag(F#))bhaag


[CHORUS]
Bhaag (Bm)bhaag DK bose, DK (D)bose, D K bose
Bhaag (A)bhaag DK bose DK (G)bhaag....
Bhaag (Bm)bhaag DK bose, DK (D)bose, D K bose
Bhaag (A)bhaag DK bose DK (Bm)bhaag....

Aandhi (Bm)aayi aandhi aayi aandhi (D)aayi aandhi
Bhaag (A)bhaag DK bose, D K (G)bhaag
Bhaag (Bm)bhaag DK bose, DK (D)bose, D K bose
(A)Aandhi Aayi (Bm)hai...

 [SOLO 1]
(Bm)  (D)  (A)  (G)
 e|-------------------------------------------------|
 B|------5T-7T-8p7-5T----------5--------------------|
 G|---7T--------------7T-6T-7T---7T-6T-4T-7p6p4-----|
 D|---------------------------------------------7---|
 A|-------------------------------------------------|
 E|-------------------------------------------------|


(Bm) (D) (A)

 e|-----------------------------5--------------------|
 B|----------------5T-7T-5T---5---8-7T-5T------------|
 G|---4T-6(slide)7----------7-------------7T-6T-4T---|
 D|--------------------------------------------------|
 A|--------------------------------------------------|
 E|--------------------------------------------------|

[VERSE - 3]
(Bm)Hum toh hai kabootarr
Do (Em)pahiye ka ek scooter Zinda(D)gi
Jo (A)Dhakelo toh (E)Chale
Arre (Bm)kismat ki hai kadki
Roti (Em)kapda aur larki teeno (D)hi
Paapad (A)belo toh (E)miley

[BRIDGE]
Yeh (G)bheja (Em)garden (A)hai
Aur (G)tension (Em)maali (F#)hai.. yeah(A)

(D)Mann ka taan(Em)pura
(G)Frustration me chhede ek hi (F#)Raag
Raag raag....(F#)bhaag

[CHORUS AGAIN]

[VERSE - 1 AGAIN]
[CHORUS AGAIN]

 [SOLO 2]
[Bm] [D]
 e|---------------------------------|
 B|---------5(slide)7^8-5---7~------|
 G|---7p6p4*---------------7--------|
 D|---------------------------------|
 A|---------------------------------|
 E|--------------------------------

This is the new song "Bhaag D.K.Bose,Aandhi aayi" from the upcoming movie "Delhi Belly".
I have just tabbed this song along with both the solos.

Three guitars are used in the song.

Guitar 1- acoustic 6-string
Guitar 2- electric 6-string overdrive(mostly!!! but also switches to metal in some parts)
Guitar 3- Bass
Tap to rate this tab
 
# A B C D E F G H I J K L M N O P Q R S T U V W X Y Z