Song name
# A B C D E F G H I J K L M N O P Q R S T U V W X Y Z

Delhi Belly - Bhaag Dk Bose chords

Highlighted       Show chord diagrams
e-----------------------------------------------------------------------------|
B---0---3-3-3-----5----7-7-7----5---3----2-2---5---3---2---0-0---2---0--------|
G-----------------------------------------------------------------------2-----|
D-----------------------------------------------------------------------------|
A-----------------------------------------------------------------------------|
E-----------------------------------------------------------------------------|
bhaag bhaag bhaag bhaag

e------------------------------------------5----3----2-----------------------|
B--0-0-0---3-3---5---7-7-7-7----5---3---5--------------5-5-5---7---5---3p2---|
G----------------------------------------------------------------------------|
D----------------------------------------------------------------------------|
A----------------------------------------------------------------------------|
E----------------------------------------------------------------------------|
bhaag bhaag bhaag bhaag

e----------------------------------------------------------------------------|
B---0-0-0----3-3-3-3---2--2--3-2---0-----------0h2--2--0-0---2---0-----------|
G---------------------------------------2-2--------------------------2-------|
D----------------------------------------------------------------------------|
A----------------------------------------------------------------------------|
E----------------------------------------------------------------------------|
hey hey hey hey hey heeeey

e------------------------------------------5---------------------------------|
B--0-0-0----3-3-3----5/7-7-7-7---5--3--5--------7h8-5h7---3h5---2h3---0h2----|
G----------------------------------------------------------------------------|
D----------------------------------------------------------------------------|
A----------------------------------------------------------------------------|
E----------------------------------------------------------------------------|
hey hey hey hey hey heeeey

The rhythm during the solo is same as the chorus.

 (Listen to the song to get exact timing sequence for singing this part)




Verse 3:
Bm
hum to hain kabootar
D
do paiye ka ek scooter
A
zindagi
G
jo dhakelo to chale
Bm
Are kismat ki hai kadki
D
roti kapda aur ladki
A
teeno hi
Bm
papad belo to mile

Bridge:
G           Em         A
Ye bheja    garden   hai
G              Em        F#
aur tension    maali     hai
yeah

Bm          Em              G
mann ka   tanpura  frustration mein
               F#
chherre ek hi raag
F#
raag  raag  bhaag

Chorus:
Bm                      D
bhaag bhaag DK Bose DK Bose DK bose
A                   Bm
bhaag bhaag DK Bose DK bhaag
Bm                      D
bhaag bhaag DK Bose DK Bose DK bose

A                   Bm
bhaag bhaag DK Bose DK bhaag
Bm                            D
hey, andhi aayi andhi aayi andhi aayi andhi aayi
A                    Bm
bhaag bhaag DK Bose DK bhaag
Bm                      D
bhaag bhaag DK Bose DK Bose DK bose
A           Bm
andhi aayi haiiiiiiiii


Verse:
Bm             D
daddy mujhse bola
A             Bm
tu galti hai meri
Bm            D
tujhpe zindgaani
A           Bm
guilty hai meri

Bm          Em
saabun ki shakal mein
G                      F#
beta tu to nikla keval jhaag
F#
jhaag jhaag bhaag


Chorus:
Bm                       D
bhaag bhaag DK Bose DK Bose DK bose
A                   Bm
bhaag bhaag DK Bose DK bhaag
Bm                      D
bhaag bhaag DK Bose DK Bose DK bose
A                   Bm
bhaag bhaag DK Bose DK bhaag
Bm                        D
andhi aayi andhi aayi  andhi aayi andhi aayi

A                  Bm
bhaag bhaag DK Bose DK bhaag
Bm                       D
bhaag bhaag DK Bose DK Bose DK bose
A           Bm
andhi aayi haiiiiiiiiii


Solo 2:

This can be played in distortion either in overdrive mode or metal mode.
This is somewhat complex to hear in some parts but still is a good one.

e----------------------------------------------------------------------------|
B--------------------------------------------------------------7---10---7----|
G---7p6-7p6-7p6-7p6-7p6-7p6---7p6-7p6----7h9---7-----7---9~10----------------|
D-------------------------------------------------9--------------------------|
A----------------------------------------------------------------------------|
E----------------------------------------------------------------------------|


e-----------------12~14-------10----12~14-------10-12~14---12~14-12~14-------|
B-----10-----12----------12----------------12--------------------------------|
G----------------------------------------------------------------------------|
D----------------------------------------------------------------------------|
A----------------------------------------------------------------------------|
E----------------------------------------------------------------------------|


e--12--12h14-14----12h14-14---12h14-14----12h14-14----12h14-14----12h14-14---|
B----------------------------------------------------------------------------|
G----------------------------------------------------------------------------|
D----------------------------------------------------------------------------|
A----------------------------------------------------------------------------|
E----------------------------------------------------------------------------|


e-14---17---14---17/19--------------------------------------------------------|
B----------------------15p12---15p12---15p12---15p12---15p12---15---12----10--|
G-----------------------------------------------------------------------------|
D-----------------------------------------------------------------------------|
A-----------------------------------------------------------------------------|
E-----------------------------------------------------------------------------|



e----------------------------------------------------------------------------|
B----------------------------------------------------------------------------|
G---11------9h11----7h9----6h7----4h6----2h4---------------------------------|
D----------------------------------------------------------------------------|
A----------------------------------------------------------------------------|
E----------------------------------------------------------------------------|
Tap to rate this tab
# A B C D E F G H I J K L M N O P Q R S T U V W X Y Z