Song name
# A B C D E F G H I J K L M N O P Q R S T U V W X Y Z

Deli Creeps - Grampa Bill tab

There are so little Deli Creeps tabs,
so I decided that I should try to tab them
so, here it goes..

Keep in mind that I made this tab in standard tuning
and the guitar for this song is tuned down low (I think)

|---------------------------------------------------------------------------|
|---------------------------------------------------------------------------|
|---------------------------------------------------------------------------|
|-6h-7-7--x-x--x-x-x--x-x---------------------------------------------------|
|-6h-7-7--x-x--x-x--x--x-x--(repeat a few times)----------------------------|
|-4h-5-5--x-x--x-x-x--x-x---------------------------------------------------|

The next part goes
somthing like this...

|---------------------------------------------------------------------------|
|---------------------------------------------------------------------------|
|---------------------------------------------------------------------------|
|-2-2-x-3---2-2-x-2---------------------------------------------------------|
|-2-2-x-3---2-2-x-2---------------------------------------------------------|
|-0-0-x-1---0-0-x-0---------------------------------------------------------|

During the verse, you can
hear Buckethead playing somthing quietly
in the background, it goes somthing like this.


\---LET-EACH-NOTE-RING----\-----------------------------------------------|
|-----5--4--------5-----4-----------------------------------------------------|
|-----5--4---3--5---5---4-----------------------------------------------------|
|----------2----------2-------------------------------------------------------|
|-----------------------------------------------------------------------------|
|-----------------------------------------------------------------------------|
|-----------------------------------------------------------------------------|
Tap to rate this tab
# A B C D E F G H I J K L M N O P Q R S T U V W X Y Z