Song name
# A B C D E F G H I J K L M N O P Q R S T U V W X Y Z

Deli Creeps - Chores tab

|----------------------------------------------------------------------------|
|----------------------------------------------------------------------------|
|----------------------------------------------------------------------------|
|-x--x--x-x-x--5--x--x--x-x-x--8--7--x--x--x--5---8--7--5--7-----------------|
|-x--x--x-x-x--5--x--x--x-x-x--8--7--x--x--x--5---8--7--5--7----(repeat)-----|
|-x--x--x-x-x--3--x--x--x-x-x--6--5--x--x--x--3---6--5--3--5-----------------|

I'm pretty sure this is what Buckethead plays next but I made this tab in standard 
and I think his guitar is tuned pretty low, but I figured I might as well put this in here.

|----------------------------------------------------------------------------|
|----------------------------------------------------------------------------|
|----------6--5-------------6--5-5-5-5-5-5-5---------------------------------|
|-3--5--6--6--5----3--5--6--6--5-5-5-5-5-5-5---------------------------------|
|-3--5--6--4--3----3--5--6--4--3-3-3-3-3-3-3---------------------------------|
|-1--3--4----------1--3--4---------------------------------------------------|
Tap to rate this tab
 
# A B C D E F G H I J K L M N O P Q R S T U V W X Y Z