Song name
# A B C D E F G H I J K L M N O P Q R S T U V W X Y Z

Delian League - Days Of Regret tab

-------------------------------------------------------------------------------
			     days of regret - delian league
-------------------------------------------------------------------------------
Tabbed by: sean crow
Email: die_for_nothing_323@hotmail.com

Tuning: DADGBe             This is just one guitar...im not good enough yet 
                           to tab solo's so help would be appreciated!

                  delian league site - mypace.com/delianleague
PIANO INTRO!          

e|-------------------------------------------------------------------------|
B|-------------------------------------------------------------------------|
G|-------------------------------------------------------------------------|
D|-2--2-2-2--2-2--2-2--2--5--5-5-5--5-5--5-5--5--7--7-7-7--7-7--7-7--7-----|
A|-2--2-2-2--2-2--2-2--2--5--5-5-5--5-5--5-5--5--7--7-7-7--7-7--7-7--7-----|
D|-2--2-2-2--2-2--2-2--2--5--5-5-5--5-5--5-5--5--7--7-7-7--7-7--7-7--7-----|
   .  . . .  . .  . .  .  .  . . .  . .  . .  .  .  . . .  . .  . .  .

e|-----------------------
B|-----------------------
G|----------------------- 
D|-9--9-9-9--9-9--9-9--9\ 
A|-9--9-9-9--9-9--9-9--9\ 
D|-9--9-9-9--9-9--9-9--9\ 
   .  . . .  . .  . . 

e|-------------------------------------------------------------------------|
B|-------------------------------------------------------------------------|
G|-------------------------------------------------------------------------|
D|-2-2-2-2-2-2-2-2-2-2-2-2-5p4---5-5-5-5-5-5-5-5-5-5-5-5-9p8---------------|
A|-2-2-2-2-2-2-2-2-2-2-2-2-------5-5-5-5-5-5-5-5-5-5-5-5-------------------|
D|-2-2-2-2-2-2-2-2-2-2-2-2-------5-5-5-5-5-5-5-5-5-5-5-5-------------------|
   . . . . . . . . . . . .       . . . . . . . . . . . .

e|-------------------------------------------------------------------------|
B|-------------------------------------------------------------------------|
G|-------------------------------------------------------------------------|
D|-7-7-7-7-7-7-7-7-7-7-7-7-10p9---9-9-9-9-9-9-9-9-12-12-12-12-14-14-14-14--|
A|-7-7-7-7-7-7-7-7-7-7-7-7--------9-9-9-9-9-9-9-9-12-12-12-12-14-14-14-14--|
D|-7-7-7-7-7-7-7-7-7-7-7-7--------9-9-9-9-9-9-9-9-12-12-12-12-14-14-14-14--|
   . . . . . . . . . . . .        . . . . . . . .  .  .  .  .  .  .  .  .
e|------------   
B|------------   
G|------------   
D|-5-6-5-6-2--   
A|-5-6-5-6-2--   
D|-5-6-5-6-2--   

e|-------------------------------------------------------------------------|
B|-------------------------------------------------------------------------|
G|-------------------------------------------------------------------------|
D|-2--2-2-2--2-2--2-2--2--5--5-5-5--5-5--5-5--5--7--7-7-7--7-7--7-7--7-----|
A|-2--2-2-2--2-2--2-2--2--5--5-5-5--5-5--5-5--5--7--7-7-7--7-7--7-7--7-----|
D|-2--2-2-2--2-2--2-2--2--5--5-5-5--5-5--5-5--5--7--7-7-7--7-7--7-7--7-----|
   .  . . .  . .  . .  .  .  . . .  . .  . .  .  .  . . .  . .  . .  .

e|-----------------------
B|-----------------------
G|----------------------- 
D|-9--9-9-9--9-9--9-9--9\ 
A|-9--9-9-9--9-9--9-9--9\ 
D|-9--9-9-9--9-9--9-9--9\ 
   .  . . .  . .  . . 


e|-------------------------------------------------------------------------|
B|-------------------------------------------------------------------------|
G|-------------------------------------------------------------------------|
D|-2-2-2-2-2-2-2-2-2-2-2-2-5p4---5-5-5-5-5-5-5-5-5-5-5-5-9p8---------------|
A|-2-2-2-2-2-2-2-2-2-2-2-2-------5-5-5-5-5-5-5-5-5-5-5-5-------------------|
D|-2-2-2-2-2-2-2-2-2-2-2-2-------5-5-5-5-5-5-5-5-5-5-5-5-------------------|
   . . . . . . . . . . . .     . . . . . . . . . . . .

e|-------------------------------------------------------------------------|
B|-------------------------------------------------------------------------|
G|-------------------------------------------------------------------------|
D|-7-7-7-7-7-7-7-7-7-7-7-7-10p9---9-9-9-9-9-9-9-9-12-12-12-12-14-14-14-14--|
A|-7-7-7-7-7-7-7-7-7-7-7-7--------9-9-9-9-9-9-9-9-12-12-12-12-14-14-14-14--|
D|-7-7-7-7-7-7-7-7-7-7-7-7--------9-9-9-9-9-9-9-9-12-12-12-12-14-14-14-14--|
   . . . . . . . . . . . .        . . . . . . . .  .  .  .  .  .  .  .  .

e|------------------------------------------------------------|
B|------------------------------------------------------------|
G|------------------------------------------------------------| 
D|-2--2-2--2--2-5--5-5--5--5--5-5-7--7-7--7--10-10--10-10-9---|  x4
A|-2--2-2--2--2-5--5-5--5--5--5-5-7--7-7--7--10-10--10-10-9---|
D|-2--2-2--2--2-5--5-5--5--5--5-5-7--7-7--7--10-10--10-10-9---|
      . .     .    . .     .         . .            .  .
e|-------------------------------------------------------------------------|
B|-------------------------------------------------------------------------|
G|-------------------------------------------------------------------------|
D|-2--2-2-2--2-2--2--2-------2-2-2---2-2-2---------------------------------|
A|-2--2-2-2--2-2--2--2- x3 --2-2-2---2-2-2---------------------------------|
D|-2--2-2-2--2-2--2--2-------2-2-2---2-2-2---------------------------------|
   .  . . .  . .  .  .       . . .   . . .

HERE'S THE SOLO!!     ive tabbed the rythm for it!

e|-------------------------   ---------------------------------------------|
B|-------------------------   ---------------------------------------------|
G|-------------------------   ---------------------------------------------|
D|-5>--8>--7>--10>--10-10--   -2-2-2-2-2-2-2-2-2-2-2-5-5-5-5-5-5-5-5-5-5-5-|
A|-5>--8>--7>--10>--10-10--   -2-2-2-2-2-2-2-2-2-2-2-5-5-5-5-5-5-5-5-5-5-5-|
D|-5>--8>--7>--10>--10-10--   -2-2-2-2-2-2-2-2-2-2-2-5-5-5-5-5-5-5-5-5-5-5-|
                                 . .   .   .   . .     . .   .   .   . .
e|-------------------------------------------------------------------------|
B|-------------------------------------------------------------------------|
G|-------------------------------------------------------------------------|
D|-4-4-4-4-4-4-4-4-4-4-4--2-2-2--2-2-2-------------------------------------|
A|-4-4-4-4-4-4-4-4-4-4-4--2-2-2--2-2-2-------------------------------------|
D|-4-4-4-4-4-4-4-4-4-4-4--2-2-2--2-2-2-------------------------------------|
     . .   .   .   . .    . . .  . . .

BACK TO THE MAIN SONG!

   tremelo     tremelo     tremelo     tremelo
e|-------------------------------------------------------------|
B|-------------------------------------------------------------|
G|-------------------------------------------------------------|
D|---------6p5---------5p4---------4p3---------3p2-------------|  x4
A|-------------------------------------------------------------|
D|-5-5-5-5-----3-3-3-3-----2-2-2-2-----0-0-0-0-----------------|
   . . . .     . . . .     . . . .     . . . .
e|----------------------------------------------------------------------|
B|----------------------------------------------------------------------|
G|----------------------------------------------------------------------|   
D|-2-2-2-2-2-2-2-2-2-2-2---5-5-5-5-5-5-5-5-5-5-5------------------------|
A|-2-2-2-2-2-2-2-2-2-2-2---5-5-5-5-5-5-5-5-5-5-5------------------------|
D|-2-2-2-2-2-2-2-2-2-2-2---5-5-5-5-5-5-5-5-5-5-5------------------------|
     . .   .   .   . .       . .   .   .   . .
e|----------------------------------------------------------------------|   
B|----------------------------------------------------------------------|   
G|----------------------------------------------------------------------|   
D|4-4-4-4-4-4-4-4-4-4-4--2-2-2--2-2-2-----------------------------------|
A|4-4-4-4-4-4-4-4-4-4-4--2-2-2--2-2-2-----------------------------------|
D|4-4-4-4-4-4-4-4-4-4-4--2-2-2--2-2-2-----------------------------------|
    . .   .   .   . .    . . .  . . .


e|------------------------------------------------------------|
B|------------------------------------------------------------|
G|------------------------------------------------------------| 
D|-2--2-2--2--2-5--5-5--5--5--5-5-7--7-7--7--10-10--10-10-9---|  x4
A|-2--2-2--2--2-5--5-5--5--5--5-5-7--7-7--7--10-10--10-10-9---|
D|-2--2-2--2--2-5--5-5--5--5--5-5-7--7-7--7--10-10--10-10-9---|
      . .     .    . .     .         . .            .  .

e|-------------------------------------------------------------------------|
B|-------------------------------------------------------------------------|
G|-------------------------------------------------------------------------|
D|-2--2-2-2--2-2--2-2--2--5--5-5-5--5-5--5-5--5--7--7-7-7--7-7--7-7--7-----|
A|-2--2-2-2--2-2--2-2--2--5--5-5-5--5-5--5-5--5--7--7-7-7--7-7--7-7--7-----|
D|-2--2-2-2--2-2--2-2--2--5--5-5-5--5-5--5-5--5--7--7-7-7--7-7--7-7--7-----|
   .  . . .  . .  . .  .  .  . . .  . .  . .  .  .  . . .  . .  . .  .

e|-----------------------
B|-----------------------
G|----------------------- 
D|-9--9-9-9--9-9--9-9--9\ 
A|-9--9-9-9--9-9--9-9--9\ 
D|-9--9-9-9--9-9--9-9--9\ 
   .  . . .  . .  . .

e|-------------------------------------------------------------------------|
B|-------------------------------------------------------------------------|
G|-------------------------------------------------------------------------|
D|-2-2-2-2-2-2-2-2-2-2-2-2-5p4---5-5-5-5-5-5-5-5-5-5-5-5-9p8---------------|
A|-2-2-2-2-2-2-2-2-2-2-2-2-------5-5-5-5-5-5-5-5-5-5-5-5-------------------|
D|-2-2-2-2-2-2-2-2-2-2-2-2-------5-5-5-5-5-5-5-5-5-5-5-5-------------------|
   . . . . . . . . . . . .       . . . . . . . . . . . .

e|-------------------------------------------------------------------------|
B|-------------------------------------------------------------------------|
G|-------------------------------------------------------------------------|
D|-7-7-7-7-7-7-7-7-7-7-7-7-10p9---9-9-9-9-9-9-9-9-12-12-12-12-14-14-14-14--|
A|-7-7-7-7-7-7-7-7-7-7-7-7--------9-9-9-9-9-9-9-9-12-12-12-12-14-14-14-14--|
D|-7-7-7-7-7-7-7-7-7-7-7-7--------9-9-9-9-9-9-9-9-12-12-12-12-14-14-14-14--|
   . . . . . . . . . . . .        . . . . . . . .  .  .  .  .  .  .  .  .
e|------------   
B|------------   
G|------------   
D|-5-6-5-6-2--   
A|-5-6-5-6-2--   
D|-5-6-5-6-2--

e|-------------------------------------------------------------------------|
B|-------------------------------------------------------------------------|
G|-------------------------------------------------------------------------|
D|-2--2-2-2--2-2--2-2--2--5--5-5-5--5-5--5-5--5--7--7-7-7--7-7--7-7--7-----|
A|-2--2-2-2--2-2--2-2--2--5--5-5-5--5-5--5-5--5--7--7-7-7--7-7--7-7--7-----|
D|-2--2-2-2--2-2--2-2--2--5--5-5-5--5-5--5-5--5--7--7-7-7--7-7--7-7--7-----|
   .  . . .  . .  . .  .  .  . . .  . .  . .  .  .  . . .  . .  . .  .

e|-----------------------
B|-----------------------
G|----------------------- 
D|-9--9-9-9--9-9--9-9--9\ 
A|-9--9-9-9--9-9--9-9--9\ 
D|-9--9-9-9--9-9--9-9--9\ 
   .  . . .  . .  . .

e|-------------------------------------------------------------------------|
B|-------------------------------------------------------------------------|
G|-------------------------------------------------------------------------|
D|-2-2-2-2-2-2-2-2-2-2-2-2-5p4---5-5-5-5-5-5-5-5-5-5-5-5-9p8---------------|
A|-2-2-2-2-2-2-2-2-2-2-2-2-------5-5-5-5-5-5-5-5-5-5-5-5-------------------|
D|-2-2-2-2-2-2-2-2-2-2-2-2-------5-5-5-5-5-5-5-5-5-5-5-5-------------------|
   . . . . . . . . . . . .       . . . . . . . . . . . .

e|-------------------------------------------------------------------------|
B|-------------------------------------------------------------------------|
G|-------------------------------------------------------------------------|
D|-7-7-7-7-7-7-7-7-7-7-7-7-10p9---9-9-9-9-9-9-9-9-12-12-12-12-14-14-14-14--|
A|-7-7-7-7-7-7-7-7-7-7-7-7--------9-9-9-9-9-9-9-9-12-12-12-12-14-14-14-14--|
D|-7-7-7-7-7-7-7-7-7-7-7-7--------9-9-9-9-9-9-9-9-12-12-12-12-14-14-14-14--|
   . . . . . . . . . . . .        . . . . . . . .  .  .  .  .  .  .  .  .

e|------------------------------------------------------------|
B|------------------------------------------------------------|
G|------------------------------------------------------------| 
D|-2--2-2--2--2-5--5-5--5--5--5-5-7--7-7--7--10-10--10-10-9---|  x4
A|-2--2-2--2--2-5--5-5--5--5--5-5-7--7-7--7--10-10--10-10-9---|
D|-2--2-2--2--2-5--5-5--5--5--5-5-7--7-7--7--10-10--10-10-9---|
      . .     .    . .     .         . .            .  .

   tremelo     tremelo     tremelo     tremelo
e|-------------------------------------------------------------|
B|-------------------------------------------------------------|
G|-------------------------------------------------------------|
D|---------6p5---------5p4---------4p3---------3p2-------------|  x4
A|-------------------------------------------------------------|
D|-5-5-5-5-----3-3-3-3-----2-2-2-2-----0-0-0-0-----------------|
   . . . .     . . . .     . . . .     . . . .

e|--------------------------------------------------------------------|
B|--------------------------------------------------------------------|
G|--------------------------------------------------------------------|
D|--------------------------------------------------------------------|  x2
A|-----7---7---7---8---8---7---5/7-------7---7---8---8---5---5---5/7--|
D|-0-0---0---0---0---0---0---0-------0-0---0---0---0---0---0---0------|

e|--------------------------------------------------------------------|
B|--------------------------------------------------------------------|
G|--------------------------------------------------------------------|
D|--------------------------------------------------------------------|  
A|-----7---7---7---8---8---5/7-5/7-------7---7---8---8---5---5---5/7--|
D|-0-0---0---0---0---0---0-----------0-0---0---0---0---0---0---0------|

e|--------------------------------------------------------------------|
B|--------------------------------------------------------------------|
G|--------------------------------------------------------------------|
D|--------------------------------------------------------------------|  
A|-----7---7---7---8---8---7---5/7-------7---7---8---8---5---5---5/7--|
D|-0-0---0---0---0---0---0---0-------0-0---0---0---0---0---0---0------|


e|-----------------------------------------|
B|-----------------------------------------|
G|-----------------------------------------|
D|-2-2-2-2-2-5-5-5-5-5-4-4-4-4-4-2-2-2-2-2-|  x4
A|-2-2-2-2-2-5-5-5-5-5-4-4-4-4-4-2-2-2-2-2-|
D|-2-2-2-2-2-5-5-5-5-5-4-4-4-4-4-2-2-2-2-2-|
   . . . .   . . . .   . . . .   . . . .

GAP IN THE SONG!!

e|------------------------------------------------|
B|------------------------------------------------|  x4
G|------------------------------------------------|  then heavier x4
D|-2-2-2-2-2>--5-5-5-5-5>--4-4-4-4-4>--5-5-5-5-5>-|  then end on D--2--
A|-2-2-2-2-2>--5-5-5-5-5>--4-4-4-4-4>--5-5-5-5-5>-|              A--2--
D|-2-2-2-2-2>--5-5-5-5-5>--4-4-4-4-4>--5-5-5-5-5>-|              D--2--
   . . . .     . . . .     . . . .     . . . .
Tap to rate this tab
# A B C D E F G H I J K L M N O P Q R S T U V W X Y Z