Song name
# A B C D E F G H I J K L M N O P Q R S T U V W X Y Z

Delirious - Promise tab

PROMISE

Intro:
e|-------------------------------------------
B|-------------8-88---8-88--888-8-88---------
G|-------------7-77---7-77--777-7-77---------  ( x 4)
D|-------------6-66---6-66--xxx-x-xx--------- Let ring the last time
A|--5-5--2-2---7-77---7-77--777-7-77---------
E|--3-3--0-0-0------0-------555-5-55---------

Verse1:
(Look when to play, nothing is played for a few bars)
e|-------------------------------------------------------------
B|-------------------------------------------------------------
G|--7-----6-----7-----6-------4------3------------------------- ( x 2)
D|--5-----5-----5-----5-------2------2-------------------------
A|--7-----7-----7-----7-------3------3-------------------------
E|----------------------------------------0--------------------

Chorus:

Play same as intro but on last section finish the A bass chord and play a C

Verse2:
e|------------------------------------------------------------
B|------------------------------------------------------------
G|----7-----6----7----6------4-----4h5------------------------ ( x 2)
D|---5-----5----5----5------2-----2---------------------------
A|--7-----7----7----7------3-----3----------------------------
E|---------------------------------------0--------------------

Chorus:

Same as previous Chorus


Solo:
e|----------------------------------------------------------
B|--8h10-8------8-------------------------------------------
G|--9----9------9--------6---9p6--7p6----7------------------
D|----------------7h9----------------7h9--------------------
A|----------------------------------------------------------
E|----------0-----------------------------------------------

e|----------------------------------------------------------
B|--8h10-8------8h10-8--------------------------------------
G|--9----9------9----9---6---9p6--7p6---6-------------------
D|-----------------------7-----------7h9--------------------
A|----------------------------------------------------------
E|----------0-----------------------------------------------

e|----------------------------------------------------------
B|--8h10-8---8-10-8------6~~~~~-----------------------------
G|--9----9---9-9--9------7~~~~~-----------------------------
D|----------------------------------------------------------
A|----------------------------------------------------------
E|----------------------------------------------------------

e|----------------------------------------------------------
B|----------------------------------------------------------
G|--5-5-5-5-5-5-5-5-----10-10--12-12--14-14--10-10----------
D|--x-x-x-x-x-x-x-x-----x--x---x--x---x--x---x--x-----------
A|--3-3-3-3-3-3-3-3-----8--8---10-10--12-12--8--8-----------
E|----------------------------------------------------------

e|---------------12---12----x--x--x--12-x--x------x--x--x--x--x--x--x---
B|----8h10-8-------12-12-14-14-14-14-14-14-14-----14-14-14-12-14-14-14--
G|----9----9--14b-----------12-12-12-12-12-12-----12-12-12-12-12-12-12--
D|------------------------------------------------------------------------
A|------------------------------------------------------------------------
E|-0-0--------------------------------------------------------------------

e|---------------12--12---12-15b~-15----15p12p10--------------------
B|----8h10-8-------12--14b----------------------12p10p8-------------
G|----9----9--14b---------------------------------------------------
D|------------------------------------------------------------------
A|------------------------------------------------------------------
E|-0-0--------------------------------------------------------------

e|---------------12-12-12----x--x--x--x--x--x--x--x--x--x--x--x--x--x--x---
B|----8h10-8-----12-12-12-14-14-14-14-15-14-14-14-15-14-14-14-15-14-14-14--
G|----9----9--14b---------12-12-12-12-12-12-12-12-12-12-12-12-12-12-12-12--
D|-------------------------------------------------------------------------
A|-------------------------------------------------------------------------
E|-0-0---------------------------------------------------------------------

END SOLO ON C CHORD SHAPE

Outro:

Play same chords as in the verses although do not go down to the E



And thats it, ENJOY!!!
Tap to rate this tab
# A B C D E F G H I J K L M N O P Q R S T U V W X Y Z