Song name
# A B C D E F G H I J K L M N O P Q R S T U V W X Y Z

Delirious - Rain Down tab

This version of the intro is off the cd, World Service.

Quite into:
e-----------------------------------------------------------|
B-----------------------------------------------------------|
G-9-9-9-9-9-9-9-9-9-9-9-9-9-9-9-9-9-9-9-9-9-9-9-9-9-9-9-9-9-|
D-7-7-7-7-7-7-7-7-7-7-7-7-7-7-7-7-7-7-7-7-7-7-7-7-7-7-7-7-7-|
A-----------------------------------------------------------|
E-----------------------------------------------------------|


Go until it reaches 0:14 and then do:


e-------------|
B-------------|
G-12--11---9~-|
D-------------|
A-------------|
E-------------|


After that at 0:15:


e-----------------------------------------------------|
B-----------------------------------------------------|
G-9--11-11--9--11-11--9--11-11--9--11-11--9--12-12-12-|
D-7--7--7---7--7--7---7--7--7---7--7--7---7--7--7--7--| X2
A-----------------------------------------------------|
E-----------------------------------------------------|

e-----------------------------------------------------|
B-12-12-12-12-12-12-12-12-10-10-10-10-10-10-10-10-----|
G-14-14-14-14-14-14-14-14-12-12-12-12-12-12-12-12-----|
D-----------------------------------------------------|
A-----------------------------------------------------|
E-----------------------------------------------------|

e-----------------------------------------------------|
B-10-10-10-10-10-10-10-10-10-10-10-10-10-10-10-10-----|
G-11-11-11-11-11-11-11-11-12-12-12-12-12-12-12-12-----|
D-----------------------------------------------------|
A-----------------------------------------------------|
E-----------------------------------------------------|
Tap to rate this tab
# A B C D E F G H I J K L M N O P Q R S T U V W X Y Z