Song name
# A B C D E F G H I J K L M N O P Q R S T U V W X Y Z

Delirious - What A Friend Ive Found tab

Tabbed by: PnbllWzrd
Just comment if you're confused

Standard Tuning

Intro and verse
e---------------------------------|
B---------------------------------|
G---5---5-----5-------5-------5---|
D---5---5---5---5---3---3---3---3-|
A-3---5---7-------5-------5-------|
E---------------------------------|

chorus - or you can just strum, or ad lib with fingerpicking on these chords
  F                 C         Repeat
e-------------------------------------|
B----0h1-------1---------0h1-------1--|
G---2----2-------2-----------0------0-|
D-3---------3----------2--------------|
A--------------------3-----------3----|
E-------------------------------------|

  Am      G     C
e----------------------------------------|
B-----1-----0-------1--------------------|
G---2---2-------------0------------------|
D-2-------0---0---2-------3-----2----0---|
A---------------3----------------------3-|
E----------------------------------------|

filler after chorus

e-----------------------|
B-1-----1-----1-----1---|
G---0-----0-----0-----0-|
D-----------------------|
A-----------------------|
E-----------------------|


Lead Break - i usually just improvise here
e---------------------------------------------|
B-------1---0-1---------------1-----0-1---3-1-|
G-2---------------0-----2---------------------|
D---------------------------------------------|
A---------------------------------------------|
E---------------------------------------------|

e---------------------------------------------------|
B-0-1-----------------------------------------------|
G---------------------------------------------------|
D-------------------------------------3---2---0---3-|
A---------0-----2-----3-----------------------------|
E---------------------------------------------------|


filler

e-----------------------|
B-1-----1-----1-----1---|
G---0-----0-----0-----0-|
D-----------------------|
A-----------------------|
E-----------------------|

chorus chords and ad libbing several times use finger picking or just improvise - use a 
C major arpeggio if unsure.
F  C  F  C
Am  G  C  F  C  G  F

God Bless


| /   slide up
| \   slide down
| h   hammer-on
| p   pull-off
| ~   vibrato
| +   harmonic
| x   Mute note
| b   Bend
| pb  Pre-bend
| br  Bend release
| pbr Pre-bend release
| brb Bend release bend
Tap to rate this tab
 
# A B C D E F G H I J K L M N O P Q R S T U V W X Y Z